  0
SECTION
  2
HEADER
  9
$ACADVER
  1
AC1018
  9
$ACADMAINTVER
 70
    39
  9
$DWGCODEPAGE
  3
ANSI_1252
  9
$LASTSAVEDBY
  1
fottrem
  9
$INSBASE
 10
0.0
 20
0.0
 30
0.0
  9
$EXTMIN
 10
7.437633041354418
 20
8.001466767573142
 30
0.0
  9
$EXTMAX
 10
26.96587284530801
 20
18.00147702267478
 30
0.0
  9
$LIMMIN
 10
0.0
 20
0.0
  9
$LIMMAX
 10
12.0
 20
9.0
  9
$ORTHOMODE
 70
     0
  9
$REGENMODE
 70
     1
  9
$FILLMODE
 70
     1
  9
$QTEXTMODE
 70
     0
  9
$MIRRTEXT
 70
     0
  9
$LTSCALE
 40
1.0
  9
$ATTMODE
 70
     1
  9
$TEXTSIZE
 40
0.2
  9
$TRACEWID
 40
0.05
  9
$TEXTSTYLE
  7
Standard
  9
$CLAYER
  8
0
  9
$CELTYPE
  6
ByLayer
  9
$CECOLOR
 62
   256
  9
$CELTSCALE
 40
1.0
  9
$DISPSILH
 70
     0
  9
$DIMSCALE
 40
1.0
  9
$DIMASZ
 40
0.18
  9
$DIMEXO
 40
0.0625
  9
$DIMDLI
 40
0.38
  9
$DIMRND
 40
0.0
  9
$DIMDLE
 40
0.0
  9
$DIMEXE
 40
0.18
  9
$DIMTP
 40
0.0
  9
$DIMTM
 40
0.0
  9
$DIMTXT
 40
0.18
  9
$DIMCEN
 40
0.09
  9
$DIMTSZ
 40
0.0
  9
$DIMTOL
 70
     0
  9
$DIMLIM
 70
     0
  9
$DIMTIH
 70
     1
  9
$DIMTOH
 70
     1
  9
$DIMSE1
 70
     0
  9
$DIMSE2
 70
     0
  9
$DIMTAD
 70
     0
  9
$DIMZIN
 70
     0
  9
$DIMBLK
  1

  9
$DIMASO
 70
     1
  9
$DIMSHO
 70
     1
  9
$DIMPOST
  1

  9
$DIMAPOST
  1

  9
$DIMALT
 70
     0
  9
$DIMALTD
 70
     2
  9
$DIMALTF
 40
25.4
  9
$DIMLFAC
 40
1.0
  9
$DIMTOFL
 70
     0
  9
$DIMTVP
 40
0.0
  9
$DIMTIX
 70
     0
  9
$DIMSOXD
 70
     0
  9
$DIMSAH
 70
     0
  9
$DIMBLK1
  1

  9
$DIMBLK2
  1

  9
$DIMSTYLE
  2
Standard
  9
$DIMCLRD
 70
     0
  9
$DIMCLRE
 70
     0
  9
$DIMCLRT
 70
     0
  9
$DIMTFAC
 40
1.0
  9
$DIMGAP
 40
0.09
  9
$DIMJUST
 70
     0
  9
$DIMSD1
 70
     0
  9
$DIMSD2
 70
     0
  9
$DIMTOLJ
 70
     1
  9
$DIMTZIN
 70
     0
  9
$DIMALTZ
 70
     0
  9
$DIMALTTZ
 70
     0
  9
$DIMUPT
 70
     0
  9
$DIMDEC
 70
     4
  9
$DIMTDEC
 70
     4
  9
$DIMALTU
 70
     2
  9
$DIMALTTD
 70
     2
  9
$DIMTXSTY
  7
Standard
  9
$DIMAUNIT
 70
     0
  9
$DIMADEC
 70
     0
  9
$DIMALTRND
 40
0.0
  9
$DIMAZIN
 70
     0
  9
$DIMDSEP
 70
    46
  9
$DIMATFIT
 70
     3
  9
$DIMFRAC
 70
     0
  9
$DIMLDRBLK
  1

  9
$DIMLUNIT
 70
     2
  9
$DIMLWD
 70
    -2
  9
$DIMLWE
 70
    -2
  9
$DIMTMOVE
 70
     0
  9
$LUNITS
 70
     2
  9
$LUPREC
 70
     4
  9
$SKETCHINC
 40
0.1
  9
$FILLETRAD
 40
0.0
  9
$AUNITS
 70
     0
  9
$AUPREC
 70
     0
  9
$MENU
  1
.
  9
$ELEVATION
 40
0.0
  9
$PELEVATION
 40
0.0
  9
$THICKNESS
 40
0.0
  9
$LIMCHECK
 70
     0
  9
$CHAMFERA
 40
0.0
  9
$CHAMFERB
 40
0.0
  9
$CHAMFERC
 40
0.0
  9
$CHAMFERD
 40
0.0
  9
$SKPOLY
 70
     0
  9
$TDCREATE
 40
2453354.092125822
  9
$TDUCREATE
 40
2453353.717125822
  9
$TDUPDATE
 40
2454792.374130926
  9
$TDUUPDATE
 40
2454791.999130926
  9
$TDINDWG
 40
0.0612036458
  9
$TDUSRTIMER
 40
0.0611799421
  9
$USRTIMER
 70
     1
  9
$ANGBASE
 50
0.0
  9
$ANGDIR
 70
     0
  9
$PDMODE
 70
     0
  9
$PDSIZE
 40
0.0
  9
$PLINEWID
 40
0.0
  9
$SPLFRAME
 70
     0
  9
$SPLINETYPE
 70
     6
  9
$SPLINESEGS
 70
     8
  9
$HANDSEED
  5
637
  9
$SURFTAB1
 70
     6
  9
$SURFTAB2
 70
     6
  9
$SURFTYPE
 70
     6
  9
$SURFU
 70
     6
  9
$SURFV
 70
     6
  9
$UCSBASE
  2

  9
$UCSNAME
  2

  9
$UCSORG
 10
0.0
 20
0.0
 30
0.0
  9
$UCSXDIR
 10
1.0
 20
0.0
 30
0.0
  9
$UCSYDIR
 10
0.0
 20
1.0
 30
0.0
  9
$UCSORTHOREF
  2

  9
$UCSORTHOVIEW
 70
     0
  9
$UCSORGTOP
 10
0.0
 20
0.0
 30
0.0
  9
$UCSORGBOTTOM
 10
0.0
 20
0.0
 30
0.0
  9
$UCSORGLEFT
 10
0.0
 20
0.0
 30
0.0
  9
$UCSORGRIGHT
 10
0.0
 20
0.0
 30
0.0
  9
$UCSORGFRONT
 10
0.0
 20
0.0
 30
0.0
  9
$UCSORGBACK
 10
0.0
 20
0.0
 30
0.0
  9
$PUCSBASE
  2

  9
$PUCSNAME
  2

  9
$PUCSORG
 10
0.0
 20
0.0
 30
0.0
  9
$PUCSXDIR
 10
1.0
 20
0.0
 30
0.0
  9
$PUCSYDIR
 10
0.0
 20
1.0
 30
0.0
  9
$PUCSORTHOREF
  2

  9
$PUCSORTHOVIEW
 70
     0
  9
$PUCSORGTOP
 10
0.0
 20
0.0
 30
0.0
  9
$PUCSORGBOTTOM
 10
0.0
 20
0.0
 30
0.0
  9
$PUCSORGLEFT
 10
0.0
 20
0.0
 30
0.0
  9
$PUCSORGRIGHT
 10
0.0
 20
0.0
 30
0.0
  9
$PUCSORGFRONT
 10
0.0
 20
0.0
 30
0.0
  9
$PUCSORGBACK
 10
0.0
 20
0.0
 30
0.0
  9
$USERI1
 70
     0
  9
$USERI2
 70
     0
  9
$USERI3
 70
     0
  9
$USERI4
 70
     0
  9
$USERI5
 70
     0
  9
$USERR1
 40
0.0
  9
$USERR2
 40
0.0
  9
$USERR3
 40
0.0
  9
$USERR4
 40
0.0
  9
$USERR5
 40
0.0
  9
$WORLDVIEW
 70
     1
  9
$SHADEDGE
 70
     3
  9
$SHADEDIF
 70
    70
  9
$TILEMODE
 70
     1
  9
$MAXACTVP
 70
    64
  9
$PINSBASE
 10
0.0
 20
0.0
 30
0.0
  9
$PLIMCHECK
 70
     0
  9
$PEXTMIN
 10
0.0
 20
0.0
 30
0.0
  9
$PEXTMAX
 10
0.0
 20
0.0
 30
0.0
  9
$PLIMMIN
 10
0.0
 20
0.0
  9
$PLIMMAX
 10
12.0
 20
9.0
  9
$UNITMODE
 70
     0
  9
$VISRETAIN
 70
     1
  9
$PLINEGEN
 70
     0
  9
$PSLTSCALE
 70
     1
  9
$TREEDEPTH
 70
  3020
  9
$CMLSTYLE
  2
Standard
  9
$CMLJUST
 70
     0
  9
$CMLSCALE
 40
1.0
  9
$PROXYGRAPHICS
 70
     1
  9
$MEASUREMENT
 70
     0
  9
$CELWEIGHT
370
    -1
  9
$ENDCAPS
280
     0
  9
$JOINSTYLE
280
     0
  9
$LWDISPLAY
290
     0
  9
$INSUNITS
 70
     1
  9
$HYPERLINKBASE
  1

  9
$STYLESHEET
  1

  9
$XEDIT
290
     0
  9
$CEPSNTYPE
380
     0
  9
$PSTYLEMODE
290
     0
  9
$FINGERPRINTGUID
  2
{8BAE0D3F-6380-4E3D-B0D1-267E31F469C1}
  9
$VERSIONGUID
  2
{6F1AD05E-3764-4268-ADD0-261F181DCA83}
  9
$EXTNAMES
290
     1
  9
$PSVPSCALE
 40
0.0
  9
$OLESTARTUP
290
     0
  9
$SORTENTS
280
   127
  9
$INDEXCTL
280
     0
  9
$HIDETEXT
280
     1
  9
$XCLIPFRAME
290
     0
  9
$HALOGAP
280
     0
  9
$OBSCOLOR
 70
   257
  9
$OBSLTYPE
280
     0
  9
$INTERSECTIONDISPLAY
280
     0
  9
$INTERSECTIONCOLOR
 70
   257
  9
$DIMASSOC
280
     2
  9
$PROJECTNAME
  1

  0
ENDSEC
  0
SECTION
  2
CLASSES
  0
CLASS
  1
ACDBDICTIONARYWDFLT
  2
AcDbDictionaryWithDefault
  3
ObjectDBX Classes
 90
        0
 91
        3
280
     0
281
     0
  0
CLASS
  1
ACDBPLACEHOLDER
  2
AcDbPlaceHolder
  3
ObjectDBX Classes
 90
        0
 91
        1
280
     0
281
     0
  0
CLASS
  1
LAYOUT
  2
AcDbLayout
  3
ObjectDBX Classes
 90
        0
 91
        1
280
     0
281
     0
  0
CLASS
  1
DICTIONARYVAR
  2
AcDbDictionaryVar
  3
ObjectDBX Classes
 90
        0
 91
        3
280
     0
281
     0
  0
CLASS
  1
TABLESTYLE
  2
AcDbTableStyle
  3
ObjectDBX Classes
 90
     2047
 91
        3
280
     0
281
     0
  0
CLASS
  1
IMAGEDEF
  2
AcDbRasterImageDef
  3
ISM
 90
        0
 91
        3
280
     0
281
     0
  0
CLASS
  1
RASTERVARIABLES
  2
AcDbRasterVariables
  3
ISM
 90
        0
 91
        3
280
     0
281
     0
  0
ENDSEC
  0
SECTION
  2
TABLES
  0
TABLE
  2
VPORT
  5
8
330
0
100
AcDbSymbolTable
 70
     2
  0
VPORT
  5
97
330
8
100
AcDbSymbolTableRecord
100
AcDbViewportTableRecord
  2
*Active
 70
     0
 10
0.0
 20
0.0
 11
1.0
 21
1.0
 12
23.80800387725577
 22
15.46805653969258
 13
0.0
 23
0.0
 14
0.5
 24
0.5
 15
0.5
 25
0.5
 16
0.0
 26
0.0
 36
1.0
 17
0.0
 27
0.0
 37
0.0
 40
27.82146909274055
 41
2.031468531468532
 42
50.0
 43
0.0
 44
0.0
 50
0.0
 51
0.0
 71
    16
 72
  1000
 73
     1
 74
     1
 75
     0
 76
     0
 77
     0
 78
     0
281
     0
 65
     0
110
0.0
120
0.0
130
0.0
111
1.0
121
0.0
131
0.0
112
0.0
122
1.0
132
0.0
 79
     0
146
0.0
  0
ENDTAB
  0
TABLE
  2
LTYPE
  5
5
330
0
100
AcDbSymbolTable
 70
     1
  0
LTYPE
  5
14
330
5
100
AcDbSymbolTableRecord
100
AcDbLinetypeTableRecord
  2
ByBlock
 70
     0
  3

 72
    65
 73
     0
 40
0.0
  0
LTYPE
  5
15
330
5
100
AcDbSymbolTableRecord
100
AcDbLinetypeTableRecord
  2
ByLayer
 70
     0
  3

 72
    65
 73
     0
 40
0.0
  0
LTYPE
  5
16
330
5
100
AcDbSymbolTableRecord
100
AcDbLinetypeTableRecord
  2
Continuous
 70
     0
  3
Solid line
 72
    65
 73
     0
 40
0.0
  0
ENDTAB
  0
TABLE
  2
LAYER
  5
2
330
0
100
AcDbSymbolTable
 70
     2
  0
LAYER
  5
10
330
2
100
AcDbSymbolTableRecord
100
AcDbLayerTableRecord
  2
0
 70
     0
 62
     7
  6
Continuous
370
    -3
390
F
  0
LAYER
  5
2D9
330
2
100
AcDbSymbolTableRecord
100
AcDbLayerTableRecord
  2
DEFPOINTS
 70
     0
 62
     7
  6
Continuous
290
     0
370
    -3
390
F
  0
ENDTAB
  0
TABLE
  2
STYLE
  5
3
330
0
100
AcDbSymbolTable
 70
     1
  0
STYLE
  5
11
330
3
100
AcDbSymbolTableRecord
100
AcDbTextStyleTableRecord
  2
Standard
 70
     0
 40
0.0
 41
1.0
 50
0.0
 71
     0
 42
0.2
  3
txt
  4

  0
ENDTAB
  0
TABLE
  2
VIEW
  5
6
330
0
100
AcDbSymbolTable
 70
     0
  0
ENDTAB
  0
TABLE
  2
UCS
  5
7
330
0
100
AcDbSymbolTable
 70
     0
  0
ENDTAB
  0
TABLE
  2
APPID
  5
9
330
0
100
AcDbSymbolTable
 70
     1
  0
APPID
  5
12
330
9
100
AcDbSymbolTableRecord
100
AcDbRegAppTableRecord
  2
ACAD
 70
     0
  0
ENDTAB
  0
TABLE
  2
DIMSTYLE
  5
A
330
0
100
AcDbSymbolTable
 70
     1
100
AcDbDimStyleTable
  0
DIMSTYLE
105
27
330
A
100
AcDbSymbolTableRecord
100
AcDbDimStyleTableRecord
  2
Standard
 70
     0
340
11
  0
ENDTAB
  0
TABLE
  2
BLOCK_RECORD
  5
1
330
0
100
AcDbSymbolTable
 70
     2
  0
BLOCK_RECORD
  5
1F
330
1
100
AcDbSymbolTableRecord
100
AcDbBlockTableRecord
  2
*Model_Space
340
22
  0
BLOCK_RECORD
  5
73
330
1
100
AcDbSymbolTableRecord
100
AcDbBlockTableRecord
  2
*Paper_Space
340
74
  0
BLOCK_RECORD
  5
9B
330
1
100
AcDbSymbolTableRecord
100
AcDbBlockTableRecord
  2
*Paper_Space0
340
9C
  0
BLOCK_RECORD
  5
303
330
1
100
AcDbSymbolTableRecord
100
AcDbBlockTableRecord
  2
DWG4
340
0
  0
ENDTAB
  0
ENDSEC
  0
SECTION
  2
BLOCKS
  0
BLOCK
  5
20
330
1F
100
AcDbEntity
  8
0
100
AcDbBlockBegin
  2
*Model_Space
 70
     0
 71
     0
 10
0.0
 20
0.0
 30
0.0
  3
*Model_Space
  1

  0
ENDBLK
  5
21
330
1F
100
AcDbEntity
  8
0
100
AcDbBlockEnd
  0
BLOCK
  5
75
330
73
100
AcDbEntity
 67
     1
  8
0
100
AcDbBlockBegin
  2
*Paper_Space
 70
     0
 71
     0
 10
0.0
 20
0.0
 30
0.0
  3
*Paper_Space
  1

  0
ENDBLK
  5
76
330
73
100
AcDbEntity
 67
     1
  8
0
100
AcDbBlockEnd
  0
BLOCK
  5
633
330
9B
100
AcDbEntity
  8
0
100
AcDbBlockBegin
  2
*Paper_Space0
 70
     0
 71
     0
 10
0.0
 20
0.0
 30
0.0
  3
*Paper_Space0
  1

  0
ENDBLK
  5
634
330
9B
100
AcDbEntity
  8
0
100
AcDbBlockEnd
  0
BLOCK
  5
635
330
303
100
AcDbEntity
  8
0
100
AcDbBlockBegin
  2
DWG4
 70
     0
 71
     0
 10
0.0
 20
0.0
 30
0.0
  3
DWG4
  1

  0
LINE
  5
2E9
102
{ACAD_REACTORS
330
301
102
}
330
303
100
AcDbEntity
  8
0
  6
Continuous
 62
     7
370
    15
100
AcDbLine
 10
20.79428566933925
 20
11.89840838224038
 30
0.0
 11
20.79428566933925
 21
12.43263489669589
 31
0.0
  0
LINE
  5
2EA
102
{ACAD_REACTORS
330
301
330
301
102
}
330
303
100
AcDbEntity
  8
0
  6
Continuous
 62
     7
370
    15
100
AcDbLine
 10
20.91930460302379
 20
11.89840838224038
 30
0.0
 11
20.79428566933925
 21
11.89840838224038
 31
0.0
  0
LINE
  5
2EB
102
{ACAD_REACTORS
330
301
330
301
102
}
330
303
100
AcDbEntity
  8
0
  6
Continuous
 62
     7
370
    15
100
AcDbLine
 10
20.91930460302379
 20
12.59947725224344
 30
0.0
 11
20.91930460302379
 21
11.89840838224038
 31
0.0
  0
LINE
  5
2EC
102
{ACAD_REACTORS
330
301
102
}
330
303
100
AcDbEntity
  8
0
  6
Continuous
 62
     7
370
    15
100
AcDbLine
 10
20.8340028757124
 20
12.59947725224344
 30
0.0
 11
20.91930460302379
 21
12.59947725224344
 31
0.0
  0
LINE
  5
2ED
102
{ACAD_REACTORS
330
301
102
}
330
303
100
AcDbEntity
  8
0
  6
Continuous
 62
     7
370
    15
100
AcDbLine
 10
20.64323992996879
 20
12.43263489669589
 30
0.0
 11
20.64323992996879
 21
12.51567996455965
 31
0.0
  0
LINE
  5
2EE
102
{ACAD_REACTORS
330
301
102
}
330
303
100
AcDbEntity
  8
0
  6
Continuous
 62
     7
370
    15
100
AcDbLine
 10
20.79428566933925
 20
12.43263489669589
 30
0.0
 11
20.64323992996879
 21
12.43263489669589
 31
0.0
  0
SPLINE
  5
2EF
102
{ACAD_REACTORS
330
301
102
}
330
303
100
AcDbEntity
  8
0
  6
Continuous
 62
     7
370
    15
100
AcDbSpline
210
0.0
220
0.0
230
1.0
 70
    12
 71
     3
 72
    23
 73
    19
 74
     0
 42
0.00000001
 43
0.00000001
 40
0.0
 40
0.0
 40
0.0
 40
0.0
 40
0.0654890124593455
 40
0.1298105795931248
 40
0.1931156184393986
 40
0.2554916193823323
 40
0.3176683547598032
 40
0.3790905566175882
 40
0.4398355699351359
 40
0.5010415794457209
 40
0.5617989726509639
 40
0.6224959900540268
 40
0.6840786931795287
 40
0.7453046672648742
 40
0.8077589922039146
 40
0.87073945640362
 40
0.934986439304417
 40
1.0
 40
1.0
 40
1.0
 40
1.0
 10
21.281122335288
 20
12.24292505870119
 30
0.0
 41
1.0
 10
21.28104662262066
 20
12.25049968241871
 30
0.0
 41
1.0
 10
21.28089654698415
 20
12.26551390019424
 30
0.0
 41
1.0
 10
21.27936285194622
 20
12.2878102003476
 30
0.0
 41
1.0
 10
21.27675071125432
 20
12.3096312647781
 30
0.0
 41
1.0
 10
21.27340851656
 20
12.33111302064514
 30
0.0
 41
1.0
 10
21.26857473320383
 20
12.35207831050668
 30
0.0
 41
1.0
 10
21.26337031547466
 20
12.37276547114586
 30
0.0
 41
1.0
 10
21.25651797317269
 20
12.392849261441
 30
0.0
 41
1.0
 10
21.24917313547913
 20
12.41266987897781
 30
0.0
 41
1.0
 10
21.24047569227955
 20
12.43193404009156
 30
0.0
 41
1.0
 10
21.23103285491943
 20
12.4508902638906
 30
0.0
 41
1.0
 10
21.22032031541828
 20
12.46922280926163
 30
0.0
 41
1.0
 10
21.2088635014793
 20
12.48733695528106
 30
0.0
 41
1.0
 10
21.19620754429715
 20
12.50484109017295
 30
0.0
 41
1.0
 10
21.18260427415466
 20
12.52205393874288
 30
0.0
 41
1.0
 10
21.16811720479634
 20
12.5389388915069
 30
0.0
 41
1.0
 10
21.15762135177778
 20
12.54958913615433
 30
0.0
 41
1.0
 10
21.15234230251581
 20
12.55494583903941
 30
0.0
 41
1.0
  0
SPLINE
  5
2F0
102
{ACAD_REACTORS
330
301
102
}
330
303
100
AcDbEntity
  8
0
  6
Continuous
 62
     7
370
    15
100
AcDbSpline
210
0.0
220
0.0
230
1.0
 70
    12
 71
     3
 72
    23
 73
    19
 74
     0
 42
0.00000001
 43
0.00000001
 40
0.0
 40
0.0
 40
0.0
 40
0.0
 40
0.0653191317632192
 40
0.1292316658994808
 40
0.1922049340898817
 40
0.2546521231351326
 40
0.3164700138539618
 40
0.3774536374499654
 40
0.4387263283013587
 40
0.4994767795004992
 40
0.5602705355074191
 40
0.6212865164738545
 40
0.6828133185583106
 40
0.744466783505745
 40
0.8069064465263773
 40
0.8702042522781616
 40
0.9345184701711651
 40
1.0
 40
1.0
 40
1.0
 40
1.0
 10
21.15234230251581
 20
12.55494583903941
 30
0.0
 41
1.0
 10
21.14692202567538
 20
12.56021014968045
 30
0.0
 41
1.0
 10
21.13619819351752
 20
12.57062540805254
 30
0.0
 41
1.0
 10
21.11944790065416
 20
12.58526151859079
 30
0.0
 41
1.0
 10
21.10223382478156
 20
12.59880871165682
 30
0.0
 41
1.0
 10
21.08466553813537
 20
12.61148759255657
 30
0.0
 41
1.0
 10
21.06660852393821
 20
12.62304073411554
 30
0.0
 41
1.0
 10
21.04814306219544
 20
12.63365551328314
 30
0.0
 41
1.0
 10
21.02925873152649
 20
12.6432386123173
 30
0.0
 41
1.0
 10
21.00994154425505
 20
12.65186131851635
 30
0.0
 41
1.0
 10
20.99020506228412
 20
12.65940191552723
 30
0.0
 41
1.0
 10
20.96998961181076
 20
12.66583116162002
 30
0.0
 41
1.0
 10
20.94942643156535
 20
12.67143779544861
 30
0.0
 41
1.0
 10
20.92841937125419
 20
12.67591046363588
 30
0.0
 41
1.0
 10
20.90704877209338
 20
12.67957437111815
 30
0.0
 41
1.0
 10
20.88520314048257
 20
12.68209755478243
 30
0.0
 41
1.0
 10
20.86291126913349
 20
12.68365548163108
 30
0.0
 41
1.0
 10
20.84789644952026
 20
12.6838022643659
 30
0.0
 41
1.0
 10
20.8403215221776
 20
12.68387631577512
 30
0.0
 41
1.0
  0
SPLINE
  5
2F1
102
{ACAD_REACTORS
330
301
102
}
330
303
100
AcDbEntity
  8
0
  6
Continuous
 62
     7
370
    15
100
AcDbSpline
210
0.0
220
0.0
230
1.0
 70
    12
 71
     3
 72
    23
 73
    19
 74
     0
 42
0.00000001
 43
0.00000001
 40
0.0
 40
0.0
 40
0.0
 40
0.0
 40
0.066547072884556
 40
0.1319215572224124
 40
0.1962241963187249
 40
0.2596384302251791
 40
0.3223268435629766
 40
0.3839258402782328
 40
0.4449929705936608
 40
0.5062224623701153
 40
0.5669791324623124
 40
0.6276563810189452
 40
0.6886072740670414
 40
0.7494090591568816
 40
0.8111843270784458
 40
0.873124679892153
 40
0.9363298224911053
 40
1.0
 40
1.0
 40
1.0
 40
1.0
 10
20.4089986787689
 20
12.24292505870119
 30
0.0
 41
1.0
 10
20.40906932401532
 20
12.23524955546572
 30
0.0
 41
1.0
 10
20.40920936970801
 20
12.22003379472072
 30
0.0
 41
1.0
 10
20.41081703194157
 20
12.19745157482464
 30
0.0
 41
1.0
 10
20.41315268549254
 20
12.17530204465574
 30
0.0
 41
1.0
 10
20.41662105302362
 20
12.1536084857699
 30
0.0
 41
1.0
 10
20.4211437371806
 20
12.13243223240838
 30
0.0
 41
1.0
 10
20.42657768876746
 20
12.11175185957064
 30
0.0
 41
1.0
 10
20.43290689627829
 20
12.09150418830557
 30
0.0
 41
1.0
 10
20.44021806669605
 20
12.07168763507645
 30
0.0
 41
1.0
 10
20.44872920135196
 20
12.05240884875472
 30
0.0
 41
1.0
 10
20.45802789824334
 20
12.0335346643811
 30
0.0
 41
1.0
 10
20.46841314431038
 20
12.01522547043562
 30
0.0
 41
1.0
 10
20.47978029282191
 20
11.99736446749024
 30
0.0
 41
1.0
 10
20.49205171631614
 20
11.97996848395624
 30
0.0
 41
1.0
 10
20.50541286108893
 20
11.96304524784389
 30
0.0
 41
1.0
 10
20.51959190066091
 20
11.94650458732465
 30
0.0
 41
1.0
 10
20.52979834784503
 20
11.93601689884962
 30
0.0
 41
1.0
 10
20.53492027623422
 20
11.93075383439947
 30
0.0
 41
1.0
  0
SPLINE
  5
2F2
102
{ACAD_REACTORS
330
301
102
}
330
303
100
AcDbEntity
  8
0
  6
Continuous
 62
     7
370
    15
100
AcDbSpline
210
0.0
220
0.0
230
1.0
 70
    12
 71
     3
 72
    23
 73
    19
 74
     0
 42
0.00000001
 43
0.00000001
 40
0.0
 40
0.0
 40
0.0
 40
0.0
 40
0.0636935497010403
 40
0.1265933001269195
 40
0.1888990373680517
 40
0.2503422640293606
 40
0.3115339545688685
 40
0.3725072216080464
 40
0.4328173344276193
 40
0.4935963072150985
 40
0.5548482752512831
 40
0.6159378222264308
 40
0.6779802699607408
 40
0.7402662611151465
 40
0.8037037732613922
 40
0.8680300167152741
 40
0.933428498866065
 40
1.0
 40
1.0
 40
1.0
 40
1.0
 10
20.53492027623422
 20
12.55494583903941
 30
0.0
 41
1.0
 10
20.52980976746417
 20
12.54967319375625
 30
0.0
 41
1.0
 10
20.5196524411169
 20
12.53919361505593
 30
0.0
 41
1.0
 10
20.50530165876722
 20
12.52279514859496
 30
0.0
 41
1.0
 10
20.4921657287642
 20
12.50574621362141
 30
0.0
 41
1.0
 10
20.4796756680549
 20
12.48845705777035
 30
0.0
 41
1.0
 10
20.46846311560645
 20
12.47049098908999
 30
0.0
 41
1.0
 10
20.45806221696989
 20
12.4521995016999
 30
0.0
 41
1.0
 10
20.44869119683313
 20
12.43340974095349
 30
0.0
 41
1.0
 10
20.44022244082306
 20
12.41416014656673
 30
0.0
 41
1.0
 10
20.43290953522453
 20
12.39434559315569
 30
0.0
 41
1.0
 10
20.42654824421381
 20
12.37405562556477
 30
0.0
 41
1.0
 10
20.42119096547237
 20
12.35335644953851
 30
0.0
 41
1.0
 10
20.41659720613901
 20
12.33219678372787
 30
0.0
 41
1.0
 10
20.41315709657195
 20
12.31054708491142
 30
0.0
 41
1.0
 10
20.41081582742583
 20
12.28839881232194
 30
0.0
 41
1.0
 10
20.40920967925725
 20
12.26581625335996
 30
0.0
 41
1.0
 10
20.40906942780802
 20
12.25060053869292
 30
0.0
 41
1.0
 10
20.4089986787689
 20
12.24292505870119
 30
0.0
 41
1.0
  0
SPLINE
  5
2F3
102
{ACAD_REACTORS
330
301
102
}
330
303
100
AcDbEntity
  8
0
  6
Continuous
 62
     7
370
    15
100
AcDbSpline
210
0.0
220
0.0
230
1.0
 70
    12
 71
     3
 72
    15
 73
    11
 74
     0
 42
0.00000001
 43
0.00000001
 40
0.0
 40
0.0
 40
0.0
 40
0.0
 40
0.1277757446836275
 40
0.2518920836048999
 40
0.3743349739105848
 40
0.4954667520938114
 40
0.6177438299247717
 40
0.7416753459972342
 40
0.8687061433993211
 40
1.0
 40
1.0
 40
1.0
 40
1.0
 10
20.8403215221776
 20
12.68387631577512
 30
0.0
 41
1.0
 10
20.82580462894267
 20
12.68354234641329
 30
0.0
 41
1.0
 10
20.79718659589209
 20
12.68288397233284
 30
0.0
 41
1.0
 10
20.75507553372711
 20
12.67639667510278
 30
0.0
 41
1.0
 10
20.71449175047548
 20
12.66640329017047
 30
0.0
 41
1.0
 10
20.67531955514898
 20
12.65232854261673
 30
0.0
 41
1.0
 10
20.63777737098565
 20
12.63398389958544
 30
0.0
 41
1.0
 10
20.60165330044585
 20
12.61172501752993
 30
0.0
 41
1.0
 10
20.56694197881253
 20
12.5855085861417
 30
0.0
 41
1.0
 10
20.54571096690216
 20
12.56524489010132
 30
0.0
 41
1.0
 10
20.53492027623422
 20
12.55494583903941
 30
0.0
 41
1.0
  0
SPLINE
  5
2F4
102
{ACAD_REACTORS
330
301
102
}
330
303
100
AcDbEntity
  8
0
  6
Continuous
 62
     7
370
    15
100
AcDbSpline
210
0.0
220
0.0
230
1.0
 70
    12
 71
     3
 72
    23
 73
    19
 74
     0
 42
0.00000001
 43
0.00000001
 40
0.0
 40
0.0
 40
0.0
 40
0.0
 40
0.0655038910809704
 40
0.1298400716013889
 40
0.1931594928865569
 40
0.2555496651978111
 40
0.3176482047892681
 40
0.3791960176280254
 40
0.4399548317655096
 40
0.5011747468309725
 40
0.5619459436687713
 40
0.6226567509874515
 40
0.6840377693522712
 40
0.745512187177932
 40
0.8077287532919242
 40
0.8709931910868052
 40
0.9349716687019338
 40
1.0
 40
1.0
 40
1.0
 40
1.0
 10
20.8403215221776
 20
11.80212424559082
 30
0.0
 41
1.0
 10
20.84789624351956
 20
11.80219953053899
 30
0.0
 41
1.0
 10
20.86291065480368
 20
11.80234875836202
 30
0.0
 41
1.0
 10
20.88520553096572
 20
11.80388869229138
 30
0.0
 41
1.0
 10
20.9070318782175
 20
11.80647768751316
 30
0.0
 41
1.0
 10
20.92848371058377
 20
11.80990309995848
 30
0.0
 41
1.0
 10
20.94952294319974
 20
11.81442281738689
 30
0.0
 41
1.0
 10
20.97013297450605
 20
11.8199370308574
 30
0.0
 41
1.0
 10
20.99025079627288
 20
11.82671019111078
 30
0.0
 41
1.0
 10
21.01006283460653
 20
11.83408197043662
 30
0.0
 41
1.0
 10
21.02933940463115
 20
11.84275525781453
 30
0.0
 41
1.0
 10
21.04823215151576
 20
11.85225686254869
 30
0.0
 41
1.0
 10
21.06672161127882
 20
11.86271008547891
 30
0.0
 41
1.0
 10
21.08462068800477
 20
11.87444902516377
 30
0.0
 41
1.0
 10
21.10235412807834
 20
11.88683269540929
 30
0.0
 41
1.0
 10
21.11933804065228
 20
11.9006802923182
 30
0.0
 41
1.0
 10
21.13639429538584
 20
11.9149591932299
 30
0.0
 41
1.0
 10
21.14699753718072
 20
11.92546046765369
 30
0.0
 41
1.0
 10
21.15234230251581
 20
11.93075383439947
 30
0.0
 41
1.0
  0
SPLINE
  5
2F5
102
{ACAD_REACTORS
330
301
102
}
330
303
100
AcDbEntity
  8
0
  6
Continuous
 62
     7
370
    15
100
AcDbSpline
210
0.0
220
0.0
230
1.0
 70
    12
 71
     3
 72
    23
 73
    19
 74
     0
 42
0.00000001
 43
0.00000001
 40
0.0
 40
0.0
 40
0.0
 40
0.0
 40
0.065303197966089
 40
0.1292001414273743
 40
0.1921580480651507
 40
0.2545900038883
 40
0.3161598056724219
 40
0.3777204518687288
 40
0.4383957295665293
 40
0.4991313614418537
 40
0.5599102875612834
 40
0.621045221338582
 40
0.6824454237535263
 40
0.7445998894386942
 40
0.8069535493188549
 40
0.8702359143510761
 40
0.9345344435833022
 40
0.9999999999999999
 40
0.9999999999999999
 40
0.9999999999999999
 40
0.9999999999999999
 10
21.15234230251581
 20
11.93075383439947
 30
0.0
 41
1.0
 10
21.1576063130782
 20
11.93617429902213
 30
0.0
 41
1.0
 10
21.16802097775495
 20
11.94689850270066
 30
0.0
 41
1.0
 10
21.18266144623423
 20
11.9636460684662
 30
0.0
 41
1.0
 10
21.19619243335574
 20
11.98087028564081
 30
0.0
 41
1.0
 10
21.20891515157141
 20
11.99837939560648
 30
0.0
 41
1.0
 10
21.22027335541997
 20
12.01660729429797
 30
0.0
 41
1.0
 10
21.23103814424762
 20
12.03495603257045
 30
0.0
 41
1.0
 10
21.24047963717283
 20
12.05391511759989
 30
0.0
 41
1.0
 10
21.24913273772812
 20
12.07314515432203
 30
0.0
 41
1.0
 10
21.2565841436688
 20
12.09292720580336
 30
0.0
 41
1.0
 10
21.26333611001815
 20
12.11304609000612
 30
0.0
 41
1.0
 10
21.26858087627122
 20
12.13376972311301
 30
0.0
 41
1.0
 10
21.27340685706902
 20
12.15473765967124
 30
0.0
 41
1.0
 10
21.27675116349175
 20
12.17621869922137
 30
0.0
 41
1.0
 10
21.2793627284943
 20
12.19803995893077
 30
0.0
 41
1.0
 10
21.28089657871003
 20
12.22033620644645
 30
0.0
 41
1.0
 10
21.28104663325917
 20
12.23535043137502
 30
0.0
 41
1.0
 10
21.281122335288
 20
12.24292505870119
 30
0.0
 41
1.0
  0
SPLINE
  5
2F6
102
{ACAD_REACTORS
330
301
102
}
330
303
100
AcDbEntity
  8
0
  6
Continuous
 62
     7
370
    15
100
AcDbSpline
210
0.0
220
0.0
230
1.0
 70
    12
 71
     3
 72
    23
 73
    19
 74
     0
 42
0.00000001
 43
0.00000001
 40
0.0
 40
0.0
 40
0.0
 40
0.0
 40
0.0830831456987543
 40
0.1613994921324027
 40
0.2364467478684872
 40
0.3084661353892407
 40
0.3762808402121873
 40
0.4413060962513876
 40
0.5036511334591919
 40
0.5630766682311958
 40
0.620142928024991
 40
0.6761816088917307
 40
0.7303341475304742
 40
0.7838772602655238
 40
0.837420373000574
 40
0.89048464917641
 40
0.9444432582878347
 40
0.9999999999999999
 40
0.9999999999999999
 40
0.9999999999999999
 40
0.9999999999999999
 10
20.64323992996783
 20
12.51567996456098
 30
0.0
 41
1.0
 10
20.64940701730114
 20
12.51542478420109
 30
0.0
 41
1.0
 10
20.66138736247417
 20
12.514929064159
 30
0.0
 41
1.0
 10
20.67895680352077
 20
12.51510822598291
 30
0.0
 41
1.0
 10
20.69568340220471
 20
12.51594360624643
 30
0.0
 41
1.0
 10
20.71155883449103
 20
12.51773022787763
 30
0.0
 41
1.0
 10
20.72654417502044
 20
12.52038035475305
 30
0.0
 41
1.0
 10
20.74075479601083
 20
12.5233435832611
 30
0.0
 41
1.0
 10
20.75395023161079
 20
12.52769433835297
 30
0.0
 41
1.0
 10
20.76636304381521
 20
12.5324400846214
 30
0.0
 41
1.0
 10
20.77792118322115
 20
12.53802835513359
 30
0.0
 41
1.0
 10
20.78852921755159
 20
12.54452005408473
 30
0.0
 41
1.0
 10
20.79845392515139
 20
12.5515781710923
 30
0.0
 41
1.0
 10
20.80737935616364
 20
12.55960685883859
 30
0.0
 41
1.0
 10
20.81531429162889
 20
12.56849774017626
 30
0.0
 41
1.0
 10
20.82243010106694
 20
12.57807992123139
 30
0.0
 41
1.0
 10
20.8288799142476
 20
12.58832394542136
 30
0.0
 41
1.0
 10
20.83227868937168
 20
12.59572349001083
 30
0.0
 41
1.0
 10
20.83400287570981
 20
12.59947725224101
 30
0.0
 41
1.0
  0
SPLINE
  5
2F7
102
{ACAD_REACTORS
330
301
102
}
330
303
100
AcDbEntity
  8
0
  6
Continuous
 62
     7
370
    15
100
AcDbSpline
210
0.0
220
0.0
230
1.0
 70
    12
 71
     3
 72
    15
 73
    11
 74
     0
 42
0.00000001
 43
0.00000001
 40
0.0
 40
0.0
 40
0.0
 40
0.0
 40
0.1310434001598454
 40
0.2581205488011103
 40
0.3817211468657639
 40
0.503850370294119
 40
0.6255921350628535
 40
0.7480797025634415
 40
0.872177632259412
 40
0.9999999999999999
 40
0.9999999999999999
 40
0.9999999999999999
 40
0.9999999999999999
 10
20.53492027623422
 20
11.93075383439947
 30
0.0
 41
1.0
 10
20.54571646245973
 20
11.92050963217286
 30
0.0
 41
1.0
 10
20.56698206996142
 20
11.90033128593388
 30
0.0
 41
1.0
 10
20.60163616034227
 20
11.87418458899135
 30
0.0
 41
1.0
 10
20.63760717102378
 20
11.85178127773512
 30
0.0
 41
1.0
 10
20.67528401945621
 20
11.83371593986326
 30
0.0
 41
1.0
 10
20.71441395348468
 20
11.81943327132393
 30
0.0
 41
1.0
 10
20.75506561263437
 20
11.80941459869112
 30
0.0
 41
1.0
 10
20.79720012952121
 20
11.80316497778328
 30
0.0
 41
1.0
 10
20.82580674937207
 20
11.8024745587508
 30
0.0
 41
1.0
 10
20.8403215221776
 20
11.80212424559082
 30
0.0
 41
1.0
  0
SPLINE
  5
2F8
102
{ACAD_REACTORS
330
301
102
}
330
303
100
AcDbEntity
  8
0
  6
Continuous
 62
     7
370
    15
100
AcDbSpline
210
0.0
220
0.0
230
1.0
 70
    12
 71
     3
 72
    23
 73
    19
 74
     0
 42
0.00000001
 43
0.00000001
 40
0.0
 40
0.0
 40
0.0
 40
0.0
 40
0.0660687890833549
 40
0.1314574361009117
 40
0.1952331619986511
 40
0.2583074802800586
 40
0.3205990286137785
 40
0.3824620005724111
 40
0.4433406924513252
 40
0.504432741404551
 40
0.5650421816533305
 40
0.6258121198807344
 40
0.6866752874212909
 40
0.7480072166614494
 40
0.8098760634904157
 40
0.8724923431791493
 40
0.935925210923669
 40
1.0
 40
1.0
 40
1.0
 40
1.0
 10
21.20063481480538
 20
12.59661881693415
 30
0.0
 41
1.0
 10
21.20671219554002
 20
12.59040633690427
 30
0.0
 41
1.0
 10
21.21880439369695
 20
12.57804533093022
 30
0.0
 41
1.0
 10
21.23571138390771
 20
12.55869936845889
 30
0.0
 41
1.0
 10
21.25141360076231
 20
12.53887490030652
 30
0.0
 41
1.0
 10
21.2660578772005
 20
12.51875234369744
 30
0.0
 41
1.0
 10
21.27942724194086
 20
12.49806236339521
 30
0.0
 41
1.0
 10
21.29180600538312
 20
12.47709741279685
 30
0.0
 41
1.0
 10
21.30281659823709
 20
12.45555809229501
 30
0.0
 41
1.0
 10
21.31274267065134
 20
12.43368067490728
 30
0.0
 41
1.0
 10
21.32145030184291
 20
12.4113088288958
 30
0.0
 41
1.0
 10
21.32923311228636
 20
12.38862390245938
 30
0.0
 41
1.0
 10
21.33544613159751
 20
12.36536277870395
 30
0.0
 41
1.0
 10
21.34079753625426
 20
12.34174379211735
 30
0.0
 41
1.0
 10
21.34477443570416
 20
12.31762022154409
 30
0.0
 41
1.0
 10
21.34788722030578
 20
12.29309220975346
 30
0.0
 41
1.0
 10
21.34947714341393
 20
12.26812069497846
 30
0.0
 41
1.0
 10
21.34974208760595
 20
12.2513517445207
 30
0.0
 41
1.0
 10
21.34987522661613
 20
12.24292505870119
 30
0.0
 41
1.0
  0
SPLINE
  5
2F9
102
{ACAD_REACTORS
330
301
102
}
330
303
100
AcDbEntity
  8
0
  6
Continuous
 62
     7
370
    15
100
AcDbSpline
210
0.0
220
0.0
230
1.0
 70
    12
 71
     3
 72
    23
 73
    19
 74
     0
 42
0.00000001
 43
0.00000001
 40
0.0
 40
0.0
 40
0.0
 40
0.0
 40
0.0651543087909904
 40
0.1293780198035137
 40
0.1924782441096532
 40
0.2549548043369947
 40
0.316667783800777
 40
0.3779721736661382
 40
0.4388304291404864
 40
0.4999199330397628
 40
0.560543647886082
 40
0.6215900838233163
 40
0.6829754570659466
 40
0.7447535127855611
 40
0.8071551891022822
 40
0.8706432431256977
 40
0.9346173459689027
 40
1.0
 40
1.0
 40
1.0
 40
1.0
 10
20.48647731998113
 20
12.59661881693415
 30
0.0
 41
1.0
 10
20.49257806827239
 20
12.60260943789934
 30
0.0
 41
1.0
 10
20.50469242798074
 20
12.61450511590208
 30
0.0
 41
1.0
 10
20.52390229798079
 20
12.63091506936659
 30
0.0
 41
1.0
 10
20.54327781086598
 20
12.64656466398589
 30
0.0
 41
1.0
 10
20.56330730881347
 20
12.66082397771692
 30
0.0
 41
1.0
 10
20.5838273502222
 20
12.67391867276502
 30
0.0
 41
1.0
 10
20.60471750965484
 20
12.6860026051654
 30
0.0
 41
1.0
 10
20.62618327972357
 20
12.6968551992557
 30
0.0
 41
1.0
 10
20.64807168246128
 20
12.70660076942367
 30
0.0
 41
1.0
 10
20.67044193521451
 20
12.7152672604413
 30
0.0
 41
1.0
 10
20.69333378485291
 20
12.72256002009067
 30
0.0
 41
1.0
 10
20.71665061570542
 20
12.72895137393436
 30
0.0
 41
1.0
 10
20.74047666133583
 20
12.73400000471262
 30
0.0
 41
1.0
 10
20.76475672798793
 20
12.73813296208604
 30
0.0
 41
1.0
 10
20.78951754418281
 20
12.7409433897909
 30
0.0
 41
1.0
 10
20.81477265459327
 20
12.74262670611373
 30
0.0
 41
1.0
 10
20.83174363461809
 20
12.74287519573807
 30
0.0
 41
1.0
 10
20.8403215221776
 20
12.74300079343804
 30
0.0
 41
1.0
  0
SPLINE
  5
2FA
102
{ACAD_REACTORS
330
301
102
}
330
303
100
AcDbEntity
  8
0
  6
Continuous
 62
     7
370
    15
100
AcDbSpline
210
0.0
220
0.0
230
1.0
 70
    12
 71
     3
 72
    23
 73
    19
 74
     0
 42
0.00000001
 43
0.00000001
 40
0.0
 40
0.0
 40
0.0
 40
0.0
 40
0.0640747890763309
 40
0.1275076568208507
 40
0.1901239365095843
 40
0.2519927833385506
 40
0.3133247125787091
 40
0.3741878801192656
 40
0.4349578183466695
 40
0.495567258595449
 40
0.5566593075486747
 40
0.6175379994275887
 40
0.6794009713862214
 40
0.7416925197199413
 40
0.8047668380013488
 40
0.8685425638990881
 40
0.9339312109166451
 40
1.0
 40
1.0
 40
1.0
 40
1.0
 10
21.34987522661613
 20
12.24292505870119
 30
0.0
 41
1.0
 10
21.34974208760595
 20
12.23449837288167
 30
0.0
 41
1.0
 10
21.34947714341393
 20
12.21772942242392
 30
0.0
 41
1.0
 10
21.34788722030578
 20
12.19275790764895
 30
0.0
 41
1.0
 10
21.34477443570416
 20
12.16822989585831
 30
0.0
 41
1.0
 10
21.34079753625426
 20
12.14410632528503
 30
0.0
 41
1.0
 10
21.33544613159751
 20
12.12048733869845
 30
0.0
 41
1.0
 10
21.32923311228636
 20
12.097226214943
 30
0.0
 41
1.0
 10
21.32145030184291
 20
12.0745412885066
 30
0.0
 41
1.0
 10
21.31274267065134
 20
12.05216944249511
 30
0.0
 41
1.0
 10
21.30281659823709
 20
12.03029202510736
 30
0.0
 41
1.0
 10
21.29180600538312
 20
12.00875270460555
 30
0.0
 41
1.0
 10
21.27942724194086
 20
11.98778775400719
 30
0.0
 41
1.0
 10
21.2660578772005
 20
11.96709777370496
 30
0.0
 41
1.0
 10
21.25141360076231
 20
11.94697521709588
 30
0.0
 41
1.0
 10
21.23571138390771
 20
11.92715074894348
 30
0.0
 41
1.0
 10
21.21880439369695
 20
11.90780478647216
 30
0.0
 41
1.0
 10
21.20671219554002
 20
11.89544378049813
 30
0.0
 41
1.0
 10
21.20063481480538
 20
11.88923130046825
 30
0.0
 41
1.0
  0
SPLINE
  5
2FB
102
{ACAD_REACTORS
330
301
102
}
330
303
100
AcDbEntity
  8
0
  6
Continuous
 62
     7
370
    15
100
AcDbSpline
210
0.0
220
0.0
230
1.0
 70
    12
 71
     3
 72
    23
 73
    19
 74
     0
 42
0.00000001
 43
0.00000001
 40
0.0
 40
0.0
 40
0.0
 40
0.0
 40
0.0641626952787583
 40
0.1274089559763683
 40
0.189610368140581
 40
0.2514427715819593
 40
0.3130536289087768
 40
0.3735656648372949
 40
0.4345070515639669
 40
0.4953553588721117
 40
0.5561116103182536
 40
0.6173047621012164
 40
0.6792104565602891
 40
0.7415211218745538
 40
0.8044585638362921
 40
0.8684764408623076
 40
0.9337307724040191
 40
1.0
 40
1.0
 40
1.0
 40
1.0
 10
21.20063481480538
 20
11.88923130046825
 30
0.0
 41
1.0
 10
21.1945303367062
 20
11.8832453203622
 30
0.0
 41
1.0
 10
21.18240857065481
 20
11.87135885779242
 30
0.0
 41
1.0
 10
21.16324710235532
 20
11.85487559212098
 30
0.0
 41
1.0
 10
21.14362989949046
 20
11.83944839160096
 30
0.0
 41
1.0
 10
21.12343925087831
 20
11.82514859591386
 30
0.0
 41
1.0
 10
21.10278768015847
 20
11.81193568961287
 30
0.0
 41
1.0
 10
21.0815354439981
 20
11.79994575227096
 30
0.0
 41
1.0
 10
21.059754413739
 20
11.78918244958229
 30
0.0
 41
1.0
 10
21.03749839490894
 20
11.77935986907511
 30
0.0
 41
1.0
 10
21.01470702210349
 20
11.77074091689258
 30
0.0
 41
1.0
 10
20.99132571793512
 20
11.76341341554296
 30
0.0
 41
1.0
 10
20.96744763559337
 20
11.75705267595541
 30
0.0
 41
1.0
 10
20.94302268558712
 20
11.75199926674985
 30
0.0
 41
1.0
 10
20.91814053229178
 20
11.74786972486693
 30
0.0
 41
1.0
 10
20.892679932007
 20
11.74504087634909
 30
0.0
 41
1.0
 10
20.86667159353114
 20
11.74338026035242
 30
0.0
 41
1.0
 10
20.84914994764516
 20
11.74312724951856
 30
0.0
 41
1.0
 10
20.8403215221776
 20
11.74299976792787
 30
0.0
 41
1.0
  0
SPLINE
  5
2FC
102
{ACAD_REACTORS
330
301
102
}
330
303
100
AcDbEntity
  8
0
  6
Continuous
 62
     7
370
    15
100
AcDbSpline
210
0.0
220
0.0
230
1.0
 70
    12
 71
     3
 72
    23
 73
    19
 74
     0
 42
0.00000001
 43
0.00000001
 40
0.0
 40
0.0
 40
0.0
 40
0.0
 40
0.0651881781839426
 40
0.1291566773770239
 40
0.1923522261587146
 40
0.2545504496064623
 40
0.3165024404737861
 40
0.3776488227586082
 40
0.4385387143934387
 40
0.4996599746638776
 40
0.5603152037486013
 40
0.6213933736688279
 40
0.6828106570854193
 40
0.7446208271085053
 40
0.8070549419075805
 40
0.8705759991488858
 40
0.9345833578744436
 40
1.0
 40
1.0
 40
1.0
 40
1.0
 10
20.48647731998113
 20
11.88923130046825
 30
0.0
 41
1.0
 10
20.48050074945003
 20
11.89534383423148
 30
0.0
 41
1.0
 10
20.46865943077214
 20
11.90745453548446
 30
0.0
 41
1.0
 10
20.45206090692079
 20
11.92646728449125
 30
0.0
 41
1.0
 10
20.43679075875094
 20
11.94605638649052
 30
0.0
 41
1.0
 10
20.4223919055479
 20
11.96596632176107
 30
0.0
 41
1.0
 10
20.40913560519837
 20
11.98634634791153
 30
0.0
 41
1.0
 10
20.3972805583223
 20
12.00737080965672
 30
0.0
 41
1.0
 10
20.38637853346473
 20
12.02877941889225
 30
0.0
 41
1.0
 10
20.37664922952716
 20
12.05067718694722
 30
0.0
 41
1.0
 10
20.36797840062573
 20
12.07304494215448
 30
0.0
 41
1.0
 10
20.36068680944285
 20
12.09593746454
 30
0.0
 41
1.0
 10
20.3542951397115
 20
12.11925411351951
 30
0.0
 41
1.0
 10
20.34924659442147
 20
12.14308020836996
 30
0.0
 41
1.0
 10
20.34511361378847
 20
12.16736026163028
 30
0.0
 41
1.0
 10
20.34230319244259
 20
12.19212108148637
 30
0.0
 41
1.0
 10
20.34061987441657
 20
12.21737619091622
 30
0.0
 41
1.0
 10
20.34037138502372
 20
12.23434717107431
 30
0.0
 41
1.0
 10
20.34024578744076
 20
12.24292505870119
 30
0.0
 41
1.0
  0
SPLINE
  5
2FD
102
{ACAD_REACTORS
330
301
102
}
330
303
100
AcDbEntity
  8
0
  6
Continuous
 62
     7
370
    15
100
AcDbSpline
210
0.0
220
0.0
230
1.0
 70
    12
 71
     3
 72
    23
 73
    19
 74
     0
 42
0.00000001
 43
0.00000001
 40
0.0
 40
0.0
 40
0.0
 40
0.0
 40
0.0653936862967321
 40
0.1297600766041982
 40
0.1928790535158507
 40
0.2552912591064195
 40
0.3174535497038719
 40
0.3788492807356391
 40
0.4395422559374023
 40
0.5005331243524235
 40
0.5612838703059363
 40
0.6224936254921746
 40
0.6836185504560559
 40
0.7452281714208393
 40
0.8077152735574774
 40
0.8708886459303342
 40
0.9348346974729419
 40
1.0
 40
1.0
 40
1.0
 40
1.0
 10
20.8403215221776
 20
11.74299976792787
 30
0.0
 41
1.0
 10
20.83174377877051
 20
11.74312731323379
 30
0.0
 41
1.0
 10
20.81472304321288
 20
11.74338040018455
 30
0.0
 41
1.0
 10
20.78946573720201
 20
11.7450391509549
 30
0.0
 41
1.0
 10
20.76470770735544
 20
11.74787919638249
 30
0.0
 41
1.0
 10
20.74043011261588
 20
11.75201749483671
 30
0.0
 41
1.0
 10
20.71654755600828
 20
11.7570327881946
 30
0.0
 41
1.0
 10
20.69322175971518
 20
11.76340674526805
 30
0.0
 41
1.0
 10
20.67036763552638
 20
11.7708047801604
 30
0.0
 41
1.0
 10
20.64798855101306
 20
11.77931938640621
 30
0.0
 41
1.0
 10
20.62611513332087
 20
11.78921761808292
 30
0.0
 41
1.0
 10
20.60464769097248
 20
11.79999266414387
 30
0.0
 41
1.0
 10
20.58361127089626
 20
11.81184420878073
 30
0.0
 41
1.0
 10
20.56332843091643
 20
11.82524177518226
 30
0.0
 41
1.0
 10
20.54331174552341
 20
11.83948738671244
 30
0.0
 41
1.0
 10
20.52371949526709
 20
11.8548236500516
 30
0.0
 41
1.0
 10
20.504698964713
 20
11.87141116049148
 30
0.0
 41
1.0
 10
20.49258932032278
 20
11.88325397497273
 30
0.0
 41
1.0
 10
20.48647731998113
 20
11.88923130046825
 30
0.0
 41
1.0
  0
SPLINE
  5
2FE
102
{ACAD_REACTORS
330
301
102
}
330
303
100
AcDbEntity
  8
0
  6
Continuous
 62
     7
370
    15
100
AcDbSpline
210
0.0
220
0.0
230
1.0
 70
    12
 71
     3
 72
    23
 73
    19
 74
     0
 42
0.00000001
 43
0.00000001
 40
0.0
 40
0.0
 40
0.0
 40
0.0
 40
0.0662580134606918
 40
0.1311256967216042
 40
0.1951327405877967
 40
0.2584309902001304
 40
0.3207311112503959
 40
0.3822625174663936
 40
0.4434453140919514
 40
0.5045435456506581
 40
0.5653815561562744
 40
0.6259757633630222
 40
0.6869904734725405
 40
0.748071314147409
 40
0.8098932542566708
 40
0.8726126042759721
 40
0.9358481623873331
 40
1.0
 40
1.0
 40
1.0
 40
1.0
 10
20.8403215221776
 20
12.74300079343804
 30
0.0
 41
1.0
 10
20.84914999846763
 20
12.74287446634397
 30
0.0
 41
1.0
 10
20.86662169802602
 20
12.74262446295026
 30
0.0
 41
1.0
 10
20.89257945014613
 20
12.74095391283569
 30
0.0
 41
1.0
 10
20.91803802579643
 20
12.73811735789007
 30
0.0
 41
1.0
 10
20.94297455849625
 20
12.73401547116253
 30
0.0
 41
1.0
 10
20.96740317755808
 20
12.72896894376762
 30
0.0
 41
1.0
 10
20.99122002078871
 20
12.72256517570793
 30
0.0
 41
1.0
 10
21.01459570288072
 20
12.71523107978601
 30
0.0
 41
1.0
 10
21.03745954067345
 20
12.70667152053186
 30
0.0
 41
1.0
 10
21.05971974282958
 20
12.69684896260211
 30
0.0
 41
1.0
 10
21.08148697963622
 20
12.68600260227291
 30
0.0
 41
1.0
 10
21.10265354176486
 20
12.67395877948655
 30
0.0
 41
1.0
 10
21.12335596806355
 20
12.66082929215302
 30
0.0
 41
1.0
 10
21.14353867487837
 20
12.64651259808437
 30
0.0
 41
1.0
 10
21.16318814734748
 20
12.63101371057679
 30
0.0
 41
1.0
 10
21.1824099841429
 20
12.61449298484111
 30
0.0
 41
1.0
 10
21.19453081012284
 20
12.60260537486828
 30
0.0
 41
1.0
 10
21.20063481480538
 20
12.59661881693415
 30
0.0
 41
1.0
  0
SPLINE
  5
2FF
102
{ACAD_REACTORS
330
301
102
}
330
303
100
AcDbEntity
  8
0
  6
Continuous
 62
     7
370
    15
100
AcDbSpline
210
0.0
220
0.0
230
1.0
 70
    12
 71
     3
 72
    23
 73
    19
 74
     0
 42
0.00000001
 43
0.00000001
 40
0.0
 40
0.0
 40
0.0
 40
0.0
 40
0.0654166421255566
 40
0.1294240008511143
 40
0.1929450580924196
 40
0.2553791728914948
 40
0.3171893429145808
 40
0.3786066263311722
 40
0.4396847962513989
 40
0.5003400253361224
 40
0.5614612856065614
 40
0.6223511772413919
 40
0.6834975595262138
 40
0.7454495503935378
 40
0.8076477738412854
 40
0.870843322622976
 40
0.9348118218160575
 40
1.0
 40
1.0
 40
1.0
 40
1.0
 10
20.34024578744076
 20
12.24292505870119
 30
0.0
 41
1.0
 10
20.34037138502372
 20
12.25150294632807
 30
0.0
 41
1.0
 10
20.34061987441657
 20
12.26847392648618
 30
0.0
 41
1.0
 10
20.34230319244259
 20
12.29372903591602
 30
0.0
 41
1.0
 10
20.34511361378847
 20
12.3184898557721
 30
0.0
 41
1.0
 10
20.34924659442147
 20
12.34276990903244
 30
0.0
 41
1.0
 10
20.3542951397115
 20
12.36659600388289
 30
0.0
 41
1.0
 10
20.36068680944285
 20
12.38991265286239
 30
0.0
 41
1.0
 10
20.36797840062573
 20
12.4128051752479
 30
0.0
 41
1.0
 10
20.37664922952716
 20
12.43517293045518
 30
0.0
 41
1.0
 10
20.38637853346472
 20
12.45707069851015
 30
0.0
 41
1.0
 10
20.3972805583223
 20
12.47847930774566
 30
0.0
 41
1.0
 10
20.40913560519837
 20
12.49950376949084
 30
0.0
 41
1.0
 10
20.4223919055479
 20
12.51988379564134
 30
0.0
 41
1.0
 10
20.43679075875094
 20
12.53979373091186
 30
0.0
 41
1.0
 10
20.45206090692079
 20
12.55938283291115
 30
0.0
 41
1.0
 10
20.46865943077214
 20
12.57839558191794
 30
0.0
 41
1.0
 10
20.48050074945003
 20
12.59050628317092
 30
0.0
 41
1.0
 10
20.48647731998113
 20
12.59661881693415
 30
0.0
 41
1.0
  0
LINE
  5
300
102
{ACAD_REACTORS
330
301
330
301
102
}
330
303
100
AcDbEntity
  8
0
100
AcDbLine
 10
20.91858920413135
 20
11.89840838224038
 30
0.0
 11
20.91930460302379
 21
11.89912378113283
 31
0.0
  0
HATCH
  5
301
330
303
100
AcDbEntity
  8
0
100
AcDbHatch
 10
0.0
 20
0.0
 30
0.0
210
0.0
220
0.0
230
1.0
  2
_USER
 70
     0
 71
     1
 91
        4
 92
        5
 93
        8
 72
     4
 94
        3
 73
     0
 74
     0
 95
       23
 96
       19
 40
0.0
 40
0.0
 40
0.0
 40
0.0
 40
0.0651881781839425
 40
0.129156677377024
 40
0.1923522261587146
 40
0.2545504496064622
 40
0.3165024404737862
 40
0.3776488227586081
 40
0.4385387143934386
 40
0.4996599746638776
 40
0.5603152037486011
 40
0.6213933736688277
 40
0.6828106570854192
 40
0.7446208271085052
 40
0.8070549419075804
 40
0.8705759991488857
 40
0.9345833578744434
 40
1.0
 40
1.0
 40
1.0
 40
1.0
 10
20.48647731998113
 20
12.59661881693415
 10
20.48050074945003
 20
12.59050628317092
 10
20.46865943077214
 20
12.57839558191794
 10
20.45206090692079
 20
12.55938283291115
 10
20.43679075875094
 20
12.53979373091186
 10
20.4223919055479
 20
12.51988379564134
 10
20.40913560519837
 20
12.49950376949084
 10
20.3972805583223
 20
12.47847930774566
 10
20.38637853346472
 20
12.45707069851015
 10
20.37664922952716
 20
12.43517293045518
 10
20.36797840062573
 20
12.4128051752479
 10
20.36068680944285
 20
12.38991265286239
 10
20.3542951397115
 20
12.36659600388289
 10
20.34924659442147
 20
12.34276990903244
 10
20.34511361378847
 20
12.3184898557721
 10
20.34230319244259
 20
12.29372903591602
 10
20.34061987441657
 20
12.26847392648618
 10
20.34037138502372
 20
12.25150294632807
 10
20.34024578744076
 20
12.24292505870119
 72
     4
 94
        3
 73
     0
 74
     0
 95
       23
 96
       19
 40
0.0
 40
0.0
 40
0.0
 40
0.0
 40
0.0654166421255564
 40
0.1294240008511142
 40
0.1929450580924195
 40
0.2553791728914947
 40
0.3171893429145807
 40
0.3786066263311721
 40
0.4396847962513987
 40
0.5003400253361223
 40
0.5614612856065613
 40
0.6223511772413918
 40
0.6834975595262138
 40
0.7454495503935377
 40
0.8076477738412854
 40
0.8708433226229761
 40
0.9348118218160574
 40
1.0
 40
1.0
 40
1.0
 40
1.0
 10
20.34024578744076
 20
12.24292505870119
 10
20.34037138502372
 20
12.23434717107431
 10
20.34061987441657
 20
12.21737619091622
 10
20.34230319244259
 20
12.19212108148637
 10
20.34511361378847
 20
12.16736026163028
 10
20.34924659442147
 20
12.14308020836996
 10
20.3542951397115
 20
12.11925411351951
 10
20.36068680944285
 20
12.09593746454
 10
20.36797840062573
 20
12.07304494215448
 10
20.37664922952716
 20
12.05067718694722
 10
20.38637853346473
 20
12.02877941889225
 10
20.3972805583223
 20
12.00737080965672
 10
20.40913560519837
 20
11.98634634791153
 10
20.4223919055479
 20
11.96596632176107
 10
20.43679075875094
 20
11.94605638649052
 10
20.45206090692079
 20
11.92646728449125
 10
20.46865943077214
 20
11.90745453548446
 10
20.48050074945003
 20
11.89534383423148
 10
20.48647731998113
 20
11.88923130046825
 72
     4
 94
        3
 73
     0
 74
     0
 95
       23
 96
       19
 40
0.0
 40
0.0
 40
0.0
 40
0.0
 40
0.0651653025270581
 40
0.1291113540696658
 40
0.1922847264425226
 40
0.2547718285791607
 40
0.3163814495439441
 40
0.3775063745078254
 40
0.4387161296940637
 40
0.4994668756475765
 40
0.5604577440625977
 40
0.6211507192643608
 40
0.682546450296128
 40
0.7447087408935805
 40
0.8071209464841493
 40
0.8702399233958018
 40
0.9346063137032679
 40
1.0
 40
1.0
 40
1.0
 40
1.0
 10
20.48647731998113
 20
11.88923130046825
 10
20.49258932032278
 20
11.88325397497273
 10
20.504698964713
 20
11.87141116049148
 10
20.52371949526709
 20
11.8548236500516
 10
20.54331174552341
 20
11.83948738671244
 10
20.56332843091643
 20
11.82524177518226
 10
20.58361127089626
 20
11.81184420878073
 10
20.60464769097248
 20
11.79999266414387
 10
20.62611513332087
 20
11.78921761808292
 10
20.64798855101306
 20
11.77931938640621
 10
20.67036763552638
 20
11.7708047801604
 10
20.69322175971518
 20
11.76340674526805
 10
20.71654755600828
 20
11.7570327881946
 10
20.74043011261588
 20
11.75201749483671
 10
20.76470770735544
 20
11.74787919638249
 10
20.78946573720201
 20
11.7450391509549
 10
20.81472304321288
 20
11.74338040018455
 10
20.83174377877051
 20
11.74312731323379
 10
20.8403215221776
 20
11.74299976792787
 72
     4
 94
        3
 73
     0
 74
     0
 95
       23
 96
       19
 40
0.0
 40
0.0
 40
0.0
 40
0.0
 40
0.0662692275959809
 40
0.1315235591376924
 40
0.1955414361637079
 40
0.2584788781254462
 40
0.3207895434397109
 40
0.3826952378987836
 40
0.4438883896817464
 40
0.5046446411278883
 40
0.5654929484360331
 40
0.6264343351627051
 40
0.6869463710912231
 40
0.7485572284180406
 40
0.810389631859419
 40
0.8725910440236317
 40
0.9358373047212417
 40
1.0
 40
1.0
 40
1.0
 40
1.0
 10
20.8403215221776
 20
11.74299976792787
 10
20.84914994764516
 20
11.74312724951856
 10
20.86667159353114
 20
11.74338026035242
 10
20.892679932007
 20
11.74504087634909
 10
20.91814053229178
 20
11.74786972486693
 10
20.94302268558712
 20
11.75199926674985
 10
20.96744763559337
 20
11.75705267595541
 10
20.99132571793512
 20
11.76341341554296
 10
21.01470702210349
 20
11.77074091689258
 10
21.03749839490894
 20
11.77935986907511
 10
21.059754413739
 20
11.78918244958229
 10
21.0815354439981
 20
11.79994575227096
 10
21.10278768015847
 20
11.81193568961287
 10
21.12343925087831
 20
11.82514859591386
 10
21.14362989949046
 20
11.83944839160096
 10
21.16324710235532
 20
11.85487559212098
 10
21.18240857065481
 20
11.87135885779242
 10
21.1945303367062
 20
11.8832453203622
 10
21.20063481480538
 20
11.88923130046825
 72
     4
 94
        3
 73
     0
 74
     0
 95
       23
 96
       19
 40
0.0
 40
0.0
 40
0.0
 40
0.0
 40
0.0660687890833549
 40
0.1314574361009119
 40
0.1952331619986512
 40
0.2583074802800587
 40
0.3205990286137786
 40
0.3824620005724113
 40
0.4433406924513253
 40
0.5044327414045511
 40
0.5650421816533304
 40
0.6258121198807344
 40
0.6866752874212909
 40
0.7480072166614494
 40
0.8098760634904156
 40
0.8724923431791494
 40
0.9359252109236691
 40
1.0
 40
1.0
 40
1.0
 40
1.0
 10
21.20063481480538
 20
11.88923130046825
 10
21.20671219554002
 20
11.89544378049813
 10
21.21880439369695
 20
11.90780478647216
 10
21.23571138390771
 20
11.92715074894348
 10
21.25141360076231
 20
11.94697521709588
 10
21.2660578772005
 20
11.96709777370496
 10
21.27942724194086
 20
11.98778775400719
 10
21.29180600538312
 20
12.00875270460555
 10
21.30281659823709
 20
12.03029202510736
 10
21.31274267065134
 20
12.05216944249511
 10
21.32145030184291
 20
12.0745412885066
 10
21.32923311228636
 20
12.097226214943
 10
21.33544613159751
 20
12.12048733869845
 10
21.34079753625426
 20
12.14410632528503
 10
21.34477443570416
 20
12.16822989585831
 10
21.34788722030578
 20
12.19275790764895
 10
21.34947714341393
 20
12.21772942242392
 10
21.34974208760595
 20
12.23449837288167
 10
21.34987522661613
 20
12.24292505870119
 72
     4
 94
        3
 73
     0
 74
     0
 95
       23
 96
       19
 40
0.0
 40
0.0
 40
0.0
 40
0.0
 40
0.064074789076331
 40
0.1275076568208507
 40
0.1901239365095843
 40
0.2519927833385506
 40
0.3133247125787091
 40
0.3741878801192656
 40
0.4349578183466695
 40
0.495567258595449
 40
0.5566593075486748
 40
0.6175379994275889
 40
0.6794009713862215
 40
0.7416925197199413
 40
0.8047668380013488
 40
0.8685425638990882
 40
0.9339312109166451
 40
1.0
 40
1.0
 40
1.0
 40
1.0
 10
21.34987522661613
 20
12.24292505870119
 10
21.34974208760595
 20
12.2513517445207
 10
21.34947714341393
 20
12.26812069497846
 10
21.34788722030578
 20
12.29309220975346
 10
21.34477443570416
 20
12.31762022154409
 10
21.34079753625426
 20
12.34174379211735
 10
21.33544613159751
 20
12.36536277870395
 10
21.32923311228636
 20
12.38862390245938
 10
21.32145030184291
 20
12.4113088288958
 10
21.31274267065134
 20
12.43368067490728
 10
21.30281659823709
 20
12.45555809229501
 10
21.29180600538312
 20
12.47709741279685
 10
21.27942724194086
 20
12.49806236339521
 10
21.2660578772005
 20
12.51875234369744
 10
21.25141360076231
 20
12.53887490030652
 10
21.23571138390771
 20
12.55869936845889
 10
21.21880439369695
 20
12.57804533093022
 10
21.20671219554002
 20
12.59040633690427
 10
21.20063481480538
 20
12.59661881693415
 72
     4
 94
        3
 73
     0
 74
     0
 95
       23
 96
       19
 40
0.0
 40
0.0
 40
0.0
 40
0.0
 40
0.0641518376126669
 40
0.1273873957240279
 40
0.1901067457433292
 40
0.251928685852591
 40
0.3130095265274595
 40
0.3740242366369778
 40
0.4346184438437256
 40
0.4954564543493419
 40
0.5565546859080486
 40
0.6177374825336064
 40
0.6792688887496041
 40
0.7415690097998696
 40
0.8048672594122033
 40
0.8688743032783958
 40
0.9337419865393082
 40
1.0
 40
1.0
 40
1.0
 40
1.0
 10
21.20063481480538
 20
12.59661881693415
 10
21.19453081012284
 20
12.60260537486828
 10
21.1824099841429
 20
12.61449298484111
 10
21.16318814734748
 20
12.63101371057679
 10
21.14353867487837
 20
12.64651259808437
 10
21.12335596806355
 20
12.66082929215302
 10
21.10265354176486
 20
12.67395877948655
 10
21.08148697963622
 20
12.68600260227291
 10
21.05971974282958
 20
12.69684896260211
 10
21.03745954067345
 20
12.70667152053186
 10
21.01459570288072
 20
12.71523107978601
 10
20.99122002078871
 20
12.72256517570793
 10
20.96740317755808
 20
12.72896894376762
 10
20.94297455849625
 20
12.73401547116253
 10
20.91803802579643
 20
12.73811735789007
 10
20.89257945014613
 20
12.74095391283569
 10
20.86662169802602
 20
12.74262446295026
 10
20.84914999846763
 20
12.74287446634397
 10
20.8403215221776
 20
12.74300079343804
 72
     4
 94
        3
 73
     0
 74
     0
 95
       23
 96
       19
 40
0.0
 40
0.0
 40
0.0
 40
0.0
 40
0.0653826540310973
 40
0.1293567568743023
 40
0.1928448108977178
 40
0.2552464872144389
 40
0.3170245429340534
 40
0.3784099161766837
 40
0.439456352113918
 40
0.5000800669602372
 40
0.5611695708595136
 40
0.6220278263338618
 40
0.683332216199223
 40
0.7450451956630053
 40
0.8075217558903468
 40
0.8706219801964863
 40
0.9348456912090096
 40
1.0
 40
1.0
 40
1.0
 40
1.0
 10
20.8403215221776
 20
12.74300079343804
 10
20.83174363461809
 20
12.74287519573807
 10
20.81477265459327
 20
12.74262670611373
 10
20.78951754418281
 20
12.7409433897909
 10
20.76475672798793
 20
12.73813296208604
 10
20.74047666133583
 20
12.73400000471262
 10
20.71665061570542
 20
12.72895137393436
 10
20.69333378485291
 20
12.72256002009067
 10
20.67044193521451
 20
12.7152672604413
 10
20.64807168246128
 20
12.70660076942367
 10
20.62618327972357
 20
12.6968551992557
 10
20.60471750965484
 20
12.6860026051654
 10
20.5838273502222
 20
12.67391867276502
 10
20.56330730881347
 20
12.66082397771692
 10
20.54327781086598
 20
12.64656466398589
 10
20.52390229798079
 20
12.63091506936659
 10
20.50469242798074
 20
12.61450511590208
 10
20.49257806827239
 20
12.60260943789934
 10
20.48647731998113
 20
12.59661881693415
 97
        8
330
2FF
330
2FC
330
2FD
330
2FB
330
2FA
330
2F8
330
2FE
330
2F9
 92
       20
 93
        8
 72
     4
 94
        3
 73
     0
 74
     0
 95
       15
 96
       11
 40
0.0
 40
0.0
 40
0.0
 40
0.0
 40
0.1278223677405879
 40
0.2519202974365584
 40
0.3744078649371464
 40
0.4961496297058808
 40
0.618278853134236
 40
0.7418794511988895
 40
0.8689565998401545
 40
0.9999999999999999
 40
0.9999999999999999
 40
0.9999999999999999
 40
0.9999999999999999
 10
20.8403215221776
 20
11.80212424559082
 10
20.82580674937207
 20
11.8024745587508
 10
20.79720012952121
 20
11.80316497778328
 10
20.75506561263437
 20
11.80941459869112
 10
20.71441395348468
 20
11.81943327132393
 10
20.67528401945621
 20
11.83371593986326
 10
20.63760717102378
 20
11.85178127773512
 10
20.60163616034227
 20
11.87418458899135
 10
20.56698206996142
 20
11.90033128593388
 10
20.54571646245973
 20
11.92050963217286
 10
20.53492027623422
 20
11.93075383439947
 72
     4
 94
        3
 73
     0
 74
     0
 95
       23
 96
       19
 40
0.0
 40
0.0
 40
0.0
 40
0.0
 40
0.0636701775088947
 40
0.126875320107847
 40
0.1888156729215542
 40
0.2505909408431184
 40
0.3113927259329586
 40
0.3723436189810548
 40
0.4330208675376876
 40
0.4937775376298847
 40
0.5550070294063392
 40
0.6160741597217672
 40
0.6776731564370234
 40
0.7403615697748209
 40
0.8037758036812751
 40
0.8680784427775876
 40
0.933452927115444
 40
1.0
 40
1.0
 40
1.0
 40
1.0
 10
20.53492027623422
 20
11.93075383439947
 10
20.52979834784503
 20
11.93601689884962
 10
20.51959190066091
 20
11.94650458732465
 10
20.50541286108893
 20
11.96304524784389
 10
20.49205171631614
 20
11.97996848395624
 10
20.47978029282191
 20
11.99736446749024
 10
20.46841314431038
 20
12.01522547043562
 10
20.45802789824334
 20
12.0335346643811
 10
20.44872920135196
 20
12.05240884875472
 10
20.44021806669605
 20
12.07168763507645
 10
20.43290689627829
 20
12.09150418830557
 10
20.42657768876746
 20
12.11175185957064
 10
20.4211437371806
 20
12.13243223240838
 10
20.41662105302362
 20
12.1536084857699
 10
20.41315268549254
 20
12.17530204465574
 10
20.41081703194157
 20
12.19745157482464
 10
20.40920936970801
 20
12.22003379472072
 10
20.40906932401532
 20
12.23524955546572
 10
20.4089986787689
 20
12.24292505870119
 72
     4
 94
        3
 73
     0
 74
     0
 95
       23
 96
       19
 40
0.0
 40
0.0
 40
0.0
 40
0.0
 40
0.066571501133935
 40
0.1319699832847259
 40
0.1962962267386078
 40
0.2597337388848535
 40
0.3220197300392592
 40
0.3840621777735692
 40
0.4451517247487169
 40
0.5064036927849015
 40
0.5671826655723806
 40
0.6274927783919536
 40
0.6884660454311315
 40
0.7496577359706393
 40
0.8111009626319483
 40
0.8734066998730805
 40
0.9363064502989598
 40
1.0
 40
1.0
 40
1.0
 40
1.0
 10
20.4089986787689
 20
12.24292505870119
 10
20.40906942780802
 20
12.25060053869292
 10
20.40920967925725
 20
12.26581625335996
 10
20.41081582742583
 20
12.28839881232194
 10
20.41315709657195
 20
12.31054708491142
 10
20.41659720613901
 20
12.33219678372787
 10
20.42119096547237
 20
12.35335644953851
 10
20.42654824421381
 20
12.37405562556477
 10
20.43290953522453
 20
12.39434559315569
 10
20.44022244082306
 20
12.41416014656673
 10
20.44869119683313
 20
12.43340974095349
 10
20.45806221696989
 20
12.4521995016999
 10
20.46846311560645
 20
12.47049098908999
 10
20.4796756680549
 20
12.48845705777035
 10
20.4921657287642
 20
12.50574621362141
 10
20.50530165876722
 20
12.52279514859496
 10
20.5196524411169
 20
12.53919361505593
 10
20.52980976746417
 20
12.54967319375625
 10
20.53492027623422
 20
12.55494583903941
 72
     4
 94
        3
 73
     0
 74
     0
 95
       15
 96
       11
 40
0.0
 40
0.0
 40
0.0
 40
0.0
 40
0.1312938566006789
 40
0.2583246540027658
 40
0.3822561700752283
 40
0.5045332479061886
 40
0.6256650260894152
 40
0.7481079163951001
 40
0.8722242553163725
 40
1.0
 40
1.0
 40
1.0
 40
1.0
 10
20.53492027623422
 20
12.55494583903941
 10
20.54571096690216
 20
12.56524489010132
 10
20.56694197881253
 20
12.5855085861417
 10
20.60165330044585
 20
12.61172501752993
 10
20.63777737098565
 20
12.63398389958544
 10
20.67531955514898
 20
12.65232854261673
 10
20.71449175047548
 20
12.66640329017047
 10
20.75507553372711
 20
12.67639667510278
 10
20.79718659589209
 20
12.68288397233284
 10
20.82580462894267
 20
12.68354234641329
 10
20.8403215221776
 20
12.68387631577512
 72
     4
 94
        3
 73
     0
 74
     0
 95
       23
 96
       19
 40
0.0
 40
0.0
 40
0.0
 40
0.0
 40
0.0654815298288349
 40
0.1297957477218384
 40
0.1930935534736227
 40
0.255533216494255
 40
0.3171866814416894
 40
0.3787134835261455
 40
0.4397294644925809
 40
0.5005232204995008
 40
0.5612736716986413
 40
0.6225463625500346
 40
0.6835299861460382
 40
0.7453478768648674
 40
0.8077950659101183
 40
0.8707683341005192
 40
0.9346808682367808
 40
1.0
 40
1.0
 40
1.0
 40
1.0
 10
20.8403215221776
 20
12.68387631577512
 10
20.84789644952026
 20
12.6838022643659
 10
20.86291126913349
 20
12.68365548163108
 10
20.88520314048257
 20
12.68209755478243
 10
20.90704877209338
 20
12.67957437111815
 10
20.92841937125419
 20
12.67591046363588
 10
20.94942643156535
 20
12.67143779544861
 10
20.96998961181076
 20
12.66583116162002
 10
20.99020506228412
 20
12.65940191552723
 10
21.00994154425505
 20
12.65186131851635
 10
21.02925873152649
 20
12.6432386123173
 10
21.04814306219544
 20
12.63365551328314
 10
21.06660852393821
 20
12.62304073411554
 10
21.08466553813537
 20
12.61148759255657
 10
21.10223382478156
 20
12.59880871165682
 10
21.11944790065416
 20
12.58526151859079
 10
21.13619819351752
 20
12.57062540805254
 10
21.14692202567538
 20
12.56021014968045
 10
21.15234230251581
 20
12.55494583903941
 72
     4
 94
        3
 73
     0
 74
     0
 95
       23
 96
       19
 40
0.0
 40
0.0
 40
0.0
 40
0.0
 40
0.065013560695583
 40
0.12926054359638
 40
0.1922410077960854
 40
0.2546953327351258
 40
0.3159213068204713
 40
0.3775040099459732
 40
0.4382010273490361
 40
0.4989584205542791
 40
0.560164430064864
 40
0.6209094433824118
 40
0.6823316452401968
 40
0.7445083806176678
 40
0.8068843815606014
 40
0.8701894204068752
 40
0.9345109875406545
 40
1.0
 40
1.0
 40
1.0
 40
1.0
 10
21.15234230251581
 20
12.55494583903941
 10
21.15762135177778
 20
12.54958913615433
 10
21.16811720479634
 20
12.5389388915069
 10
21.18260427415466
 20
12.52205393874288
 10
21.19620754429715
 20
12.50484109017295
 10
21.2088635014793
 20
12.48733695528106
 10
21.22032031541828
 20
12.46922280926163
 10
21.23103285491943
 20
12.4508902638906
 10
21.24047569227955
 20
12.43193404009156
 10
21.24917313547913
 20
12.41266987897781
 10
21.25651797317269
 20
12.392849261441
 10
21.26337031547466
 20
12.37276547114586
 10
21.26857473320383
 20
12.35207831050668
 10
21.27340851656
 20
12.33111302064514
 10
21.27675071125432
 20
12.3096312647781
 10
21.27936285194622
 20
12.2878102003476
 10
21.28089654698415
 20
12.26551390019424
 10
21.28104662262066
 20
12.25049968241871
 10
21.281122335288
 20
12.24292505870119
 72
     4
 94
        3
 73
     0
 74
     0
 95
       23
 96
       19
 40
0.0
 40
0.0
 40
0.0
 40
0.0
 40
0.0654655564166977
 40
0.1297640856489238
 40
0.193046450681145
 40
0.2554001105613057
 40
0.3175545762464735
 40
0.3789547786614179
 40
0.4400897124387165
 40
0.5008686385581462
 40
0.5616042704334706
 40
0.6222795481312711
 40
0.683840194327578
 40
0.7454099961116999
 40
0.8078419519348492
 40
0.8707998585726255
 40
0.9346968020339109
 40
0.9999999999999999
 40
0.9999999999999999
 40
0.9999999999999999
 40
0.9999999999999999
 10
21.281122335288
 20
12.24292505870119
 10
21.28104663325917
 20
12.23535043137502
 10
21.28089657871003
 20
12.22033620644645
 10
21.2793627284943
 20
12.19803995893077
 10
21.27675116349175
 20
12.17621869922137
 10
21.27340685706902
 20
12.15473765967124
 10
21.26858087627122
 20
12.13376972311301
 10
21.26333611001815
 20
12.11304609000612
 10
21.2565841436688
 20
12.09292720580336
 10
21.24913273772812
 20
12.07314515432203
 10
21.24047963717283
 20
12.05391511759989
 10
21.23103814424762
 20
12.03495603257045
 10
21.22027335541997
 20
12.01660729429797
 10
21.20891515157141
 20
11.99837939560648
 10
21.19619243335574
 20
11.98087028564081
 10
21.18266144623423
 20
11.9636460684662
 10
21.16802097775495
 20
11.94689850270066
 10
21.1576063130782
 20
11.93617429902213
 10
21.15234230251581
 20
11.93075383439947
 72
     4
 94
        3
 73
     0
 74
     0
 95
       23
 96
       19
 40
0.0
 40
0.0
 40
0.0
 40
0.0
 40
0.0650283312980662
 40
0.1290068089131948
 40
0.1922712467080758
 40
0.254487812822068
 40
0.3159622306477288
 40
0.3773432490125485
 40
0.4380540563312287
 40
0.4988252531690275
 40
0.5600451682344905
 40
0.6208039823719746
 40
0.6823517952107319
 40
0.7444503348021889
 40
0.8068405071134431
 40
0.8701599283986111
 40
0.9344961089190296
 40
1.0
 40
1.0
 40
1.0
 40
1.0
 10
21.15234230251581
 20
11.93075383439947
 10
21.14699753718072
 20
11.92546046765369
 10
21.13639429538584
 20
11.9149591932299
 10
21.11933804065228
 20
11.9006802923182
 10
21.10235412807834
 20
11.88683269540929
 10
21.08462068800477
 20
11.87444902516377
 10
21.06672161127882
 20
11.86271008547891
 10
21.04823215151576
 20
11.85225686254869
 10
21.02933940463115
 20
11.84275525781453
 10
21.01006283460653
 20
11.83408197043662
 10
20.99025079627288
 20
11.82671019111078
 10
20.97013297450605
 20
11.8199370308574
 10
20.94952294319974
 20
11.81442281738689
 10
20.92848371058377
 20
11.80990309995848
 10
20.9070318782175
 20
11.80647768751316
 10
20.88520553096572
 20
11.80388869229138
 10
20.86291065480368
 20
11.80234875836202
 10
20.84789624351956
 20
11.80219953053899
 10
20.8403215221776
 20
11.80212424559082
 97
        8
330
2F7
330
2F1
330
2F2
330
2F3
330
2F0
330
2EF
330
2F5
330
2F4
 92
        6
 72
     0
 73
     1
 93
        3
 10
20.91930460302379
 20
11.89840838224038
 10
20.91930460302379
 20
11.89912378113283
 10
20.91858920413135
 20
11.89840838224038
 97
        3
330
2EB
330
300
330
2EA
 92
        4
 93
        8
 72
     1
 10
20.79428566933925
 20
11.89840838224038
 11
20.91858920413135
 21
11.89840838224038
 72
     1
 10
20.91858920413135
 20
11.89840838224038
 11
20.91930460302379
 21
11.89912378113283
 72
     1
 10
20.91930460302379
 20
11.89912378113283
 11
20.91930460302379
 21
12.59947725224344
 72
     1
 10
20.91930460302379
 20
12.59947725224344
 11
20.8340028757124
 21
12.59947725224344
 72
     4
 94
        3
 73
     0
 74
     0
 95
       23
 96
       19
 40
0.0
 40
0.0
 40
0.0
 40
0.0
 40
0.0555567417121652
 40
0.1095153508235899
 40
0.1625796269994259
 40
0.216122739734476
 40
0.2696658524695257
 40
0.3238183911082692
 40
0.3798570719750088
 40
0.436923331768804
 40
0.496348866540808
 40
0.5586939037486123
 40
0.6237191597878127
 40
0.6915338646107592
 40
0.7635532521315127
 40
0.8386005078675972
 40
0.9169168543012456
 40
0.9999999999999999
 40
0.9999999999999999
 40
0.9999999999999999
 40
0.9999999999999999
 10
20.83400287570981
 20
12.59947725224101
 10
20.83227868937168
 20
12.59572349001083
 10
20.8288799142476
 20
12.58832394542136
 10
20.82243010106694
 20
12.57807992123139
 10
20.81531429162889
 20
12.56849774017626
 10
20.80737935616364
 20
12.55960685883859
 10
20.79845392515139
 20
12.5515781710923
 10
20.78852921755159
 20
12.54452005408473
 10
20.77792118322115
 20
12.53802835513359
 10
20.76636304381521
 20
12.5324400846214
 10
20.75395023161079
 20
12.52769433835297
 10
20.74075479601083
 20
12.5233435832611
 10
20.72654417502044
 20
12.52038035475305
 10
20.71155883449103
 20
12.51773022787763
 10
20.69568340220471
 20
12.51594360624643
 10
20.67895680352077
 20
12.51510822598291
 10
20.66138736247417
 20
12.514929064159
 10
20.64940701730114
 20
12.51542478420109
 10
20.64323992996783
 20
12.51567996456098
 72
     1
 10
20.64323992996879
 20
12.51567996455965
 11
20.64323992996879
 21
12.43263489669589
 72
     1
 10
20.64323992996879
 20
12.43263489669589
 11
20.79428566933925
 21
12.43263489669589
 72
     1
 10
20.79428566933925
 20
12.43263489669589
 11
20.79428566933925
 21
11.89840838224038
 97
        8
330
2EA
330
300
330
2EB
330
2EC
330
2F6
330
2ED
330
2EE
330
2E9
 75
     0
 76
     0
 52
45.0
 41
0.01
 77
     0
 78
     1
 53
45.0
 43
0.0
 44
0.0
 45
-0.0070710678118655
 46
0.0070710678118655
 79
     0
 47
0.0
 98
        8
 10
0.0
 20
0.0
 10
0.0
 20
0.0
 10
0.0
 20
0.0
 10
0.0
 20
0.0
 10
20.768583828522
 20
12.72188658876227
 10
20.768583828522
 20
12.72188658876227
 10
20.768583828522
 20
12.72188658876227
 10
20.768583828522
 20
12.72188658876227
  0
ENDBLK
  5
636
330
303
100
AcDbEntity
  8
0
100
AcDbBlockEnd
  0
ENDSEC
  0
SECTION
  2
ENTITIES
  0
LINE
  5
A5
330
1F
100
AcDbEntity
  8
0
  6
Continuous
 62
     7
370
    15
100
AcDbLine
 10
19.51346112761215
 20
9.819076668747144
 30
0.0
 11
19.51346112761215
 21
10.81802458651137
 31
0.0
  0
LINE
  5
A6
330
1F
100
AcDbEntity
  8
0
  6
Continuous
 62
     7
370
    15
100
AcDbLine
 10
24.38634110596188
 20
9.819076668747144
 30
0.0
 11
19.51346112761215
 21
9.819076668747144
 31
0.0
  0
LINE
  5
A7
330
1F
100
AcDbEntity
  8
0
  6
Continuous
 62
     7
370
    15
100
AcDbLine
 10
20.8388724462116
 20
10.97298186893979
 30
0.0
 11
24.38634110596188
 21
10.97298186893979
 31
0.0
  0
SPLINE
  5
A8
330
1F
100
AcDbEntity
  8
0
  6
Continuous
 62
     7
370
    15
100
AcDbSpline
210
0.0
220
0.0
230
1.0
 70
    12
 71
     3
 72
    11
 73
     7
 74
     0
 42
0.00000001
 43
0.00000001
 40
0.0
 40
0.0
 40
0.0
 40
0.0
 40
0.2962953072845943
 40
0.5535564775374455
 40
0.7862353060167174
 40
1.0
 40
1.0
 40
1.0
 40
1.0
 10
21.88144911337038
 20
15.92409270833101
 30
0.0
 41
1.0
 10
21.81097283995023
 20
15.92185112421055
 30
0.0
 41
1.0
 10
21.67930488333639
 20
15.91766326372384
 30
0.0
 41
1.0
 10
21.49629442350862
 20
15.87792855391473
 30
0.0
 41
1.0
 10
21.33888534612766
 20
15.81502137206713
 30
0.0
 41
1.0
 10
21.25815211001677
 20
15.7453341418391
 30
0.0
 41
1.0
 10
21.21949567388722
 20
15.7119667197695
 30
0.0
 41
1.0
  0
LINE
  5
A9
330
1F
100
AcDbEntity
  8
0
  6
Continuous
 62
     7
370
    15
100
AcDbLine
 10
24.38634110596188
 20
10.97298186893979
 30
0.0
 11
24.38634110596188
 21
9.819076668747144
 31
0.0
  0
SPLINE
  5
AA
330
1F
100
AcDbEntity
  8
0
  6
Continuous
 62
     7
370
    15
100
AcDbSpline
210
0.0
220
0.0
230
1.0
 70
    12
 71
     3
 72
    15
 73
    11
 74
     0
 42
0.00000001
 43
0.00000001
 40
0.0
 40
0.0
 40
0.0
 40
0.0
 40
0.0974281140573566
 40
0.2010627184766339
 40
0.3101754199447178
 40
0.4271128735830137
 40
0.5543631792233304
 40
0.6915340234904589
 40
0.8392796608343969
 40
1.0
 40
1.0
 40
1.0
 40
1.0
 10
22.6095978968019
 20
15.7119667197695
 30
0.0
 41
1.0
 10
22.59100665480976
 20
15.72909657234534
 30
0.0
 41
1.0
 10
22.55263984774431
 20
15.76444750528023
 30
0.0
 41
1.0
 10
22.48428702011286
 20
15.80753071197482
 30
0.0
 41
1.0
 10
22.40664026879586
 20
15.84334610346281
 30
0.0
 41
1.0
 10
22.32021067524759
 20
15.87402926005392
 30
0.0
 41
1.0
 10
22.2236235298275
 20
15.8955973265113
 30
0.0
 41
1.0
 10
22.11808716516882
 20
15.91195950330112
 30
0.0
 41
1.0
 10
22.00303698631317
 20
15.92299040662714
 30
0.0
 41
1.0
 10
21.92309918611316
 20
15.9237151135508
 30
0.0
 41
1.0
 10
21.88144911337038
 20
15.92409270833101
 30
0.0
 41
1.0
  0
SPLINE
  5
AB
330
1F
100
AcDbEntity
  8
0
  6
Continuous
 62
     7
370
    15
100
AcDbSpline
210
0.0
220
0.0
230
1.0
 70
    12
 71
     3
 72
    15
 73
    11
 74
     0
 42
0.00000001
 43
0.00000001
 40
0.0
 40
0.0
 40
0.0
 40
0.0
 40
0.1307913854129387
 40
0.2561462535767491
 40
0.3801047429629095
 40
0.5009320852418159
 40
0.6231111738438905
 40
0.7463883178934964
 40
0.8707199556858455
 40
0.9999999999999999
 40
0.9999999999999999
 40
0.9999999999999999
 40
0.9999999999999999
 10
22.94207905617868
 20
14.90408263567294
 30
0.0
 41
1.0
 10
22.94156318876067
 20
14.94327838643844
 30
0.0
 41
1.0
 10
22.94055289663739
 20
15.02004066464955
 30
0.0
 41
1.0
 10
22.92217406713338
 20
15.13257955356504
 30
0.0
 41
1.0
 10
22.8978779581
 20
15.24078521847453
 30
0.0
 41
1.0
 10
22.86074788916896
 20
15.34441778309174
 30
0.0
 41
1.0
 10
22.81423797130395
 20
15.44385209799331
 30
0.0
 41
1.0
 10
22.75706706684077
 20
15.53887488049676
 30
0.0
 41
1.0
 10
22.68834967229108
 20
15.62864717359243
 30
0.0
 41
1.0
 10
22.63618774537403
 20
15.68383460335448
 30
0.0
 41
1.0
 10
22.6095978968019
 20
15.7119667197695
 30
0.0
 41
1.0
  0
SPLINE
  5
AC
330
1F
100
AcDbEntity
  8
0
  6
Continuous
 62
     7
370
    15
100
AcDbSpline
210
0.0
220
0.0
230
1.0
 70
    12
 71
     3
 72
    15
 73
    11
 74
     0
 42
0.00000001
 43
0.00000001
 40
0.0
 40
0.0
 40
0.0
 40
0.0
 40
0.1346069822794992
 40
0.2644533352558829
 40
0.3900547827464894
 40
0.5126493766432222
 40
0.6338803671718272
 40
0.7538652177801134
 40
0.8757259498485094
 40
1.0
 40
1.0
 40
1.0
 40
1.0
 10
23.53181939317278
 20
16.40701783122682
 30
0.0
 41
1.0
 10
23.58396615474732
 20
16.35223027454592
 30
0.0
 41
1.0
 10
23.68641540951583
 20
16.24459282625421
 30
0.0
 41
1.0
 10
23.82051524035625
 20
16.07085997389954
 30
0.0
 41
1.0
 10
23.93440596710801
 20
15.89128097435697
 30
0.0
 41
1.0
 10
24.02645443515802
 20
15.7049462108759
 30
0.0
 41
1.0
 10
24.09926091742737
 20
15.5136633087422
 30
0.0
 41
1.0
 10
24.15090869623069
 20
15.31602139047828
 30
0.0
 41
1.0
 10
24.18142181950007
 20
15.11215048558826
 30
0.0
 41
1.0
 10
24.18563023492976
 20
14.97389045923304
 30
0.0
 41
1.0
 10
24.18775507411522
 20
14.90408263567294
 30
0.0
 41
1.0
  0
LINE
  5
AD
330
1F
100
AcDbEntity
  8
0
  6
Continuous
 62
     7
370
    15
100
AcDbLine
 10
20.99834304749792
 20
14.68744332817662
 30
0.0
 11
19.71505603869567
 21
14.68744332817662
 31
0.0
  0
SPLINE
  5
AE
330
1F
100
AcDbEntity
  8
0
  6
Continuous
 62
     7
370
    15
100
AcDbSpline
210
0.0
220
0.0
230
1.0
 70
    12
 71
     3
 72
    15
 73
    11
 74
     0
 42
0.00000001
 43
0.00000001
 40
0.0
 40
0.0
 40
0.0
 40
0.0
 40
0.1457657993223271
 40
0.2836082085576031
 40
0.4137750115963637
 40
0.5379216152364731
 40
0.656965784652491
 40
0.7729188101674132
 40
0.8861694197635945
 40
1.0
 40
1.0
 40
1.0
 40
1.0
 10
19.71505603869812
 20
14.68744332820573
 30
0.0
 41
1.0
 10
19.71380974917516
 20
14.77571415927913
 30
0.0
 41
1.0
 10
19.71138491467621
 20
14.94745768474959
 30
0.0
 41
1.0
 10
19.72849677711942
 20
15.19785395721441
 30
0.0
 41
1.0
 10
19.76847294869455
 20
15.43219598637266
 30
0.0
 41
1.0
 10
19.82411857178495
 20
15.65169757492178
 30
0.0
 41
1.0
 10
19.9032284632714
 20
15.85488758780378
 30
0.0
 41
1.0
 10
20.00139125062191
 20
16.04181901578717
 30
0.0
 41
1.0
 10
20.11714773953025
 20
16.21524680752743
 30
0.0
 41
1.0
 10
20.2110751136117
 20
16.31592852874099
 30
0.0
 41
1.0
 10
20.2581587470014
 20
16.36639796107672
 30
0.0
 41
1.0
  0
SPLINE
  5
AF
330
1F
100
AcDbEntity
  8
0
  6
Continuous
 62
     7
370
    15
100
AcDbSpline
210
0.0
220
0.0
230
1.0
 70
    12
 71
     3
 72
    15
 73
    11
 74
     0
 42
0.00000001
 43
0.00000001
 40
0.0
 40
0.0
 40
0.0
 40
0.0
 40
0.1673170593700382
 40
0.3223583544474907
 40
0.4657092903751816
 40
0.5967122337213112
 40
0.7155690821414572
 40
0.8227019907401558
 40
0.9171610608211421
 40
0.9999999999999999
 40
0.9999999999999999
 40
0.9999999999999999
 40
0.9999999999999999
 10
20.98480309079769
 20
12.66698089814681
 30
0.0
 41
1.0
 10
21.07371471502241
 20
12.73700126528795
 30
0.0
 41
1.0
 10
21.24501467083225
 20
12.87190472590628
 30
0.0
 41
1.0
 10
21.49008264437371
 20
13.06980443382421
 30
0.0
 41
1.0
 10
21.71645783188894
 20
13.25180299178684
 30
0.0
 41
1.0
 10
21.91856412023392
 20
13.4247067447022
 30
0.0
 41
1.0
 10
22.1034620589024
 20
13.58004288531299
 30
0.0
 41
1.0
 10
22.26474345560352
 20
13.72485666804214
 30
0.0
 41
1.0
 10
22.40778119245495
 20
13.8535716130643
 30
0.0
 41
1.0
 10
22.49303727882911
 20
13.93793208275324
 30
0.0
 41
1.0
 10
22.53287147540725
 20
13.97734782039657
 30
0.0
 41
1.0
  0
SPLINE
  5
B0
330
1F
100
AcDbEntity
  8
0
  6
Continuous
 62
     7
370
    15
100
AcDbSpline
210
0.0
220
0.0
230
1.0
 70
    12
 71
     3
 72
    15
 73
    11
 74
     0
 42
0.00000001
 43
0.00000001
 40
0.0
 40
0.0
 40
0.0
 40
0.0
 40
0.1303139244654029
 40
0.2551187701159995
 40
0.3777115393647293
 40
0.5000504054705168
 40
0.6203732159380558
 40
0.7436405034509987
 40
0.8702919676127011
 40
1.0
 40
1.0
 40
1.0
 40
1.0
 10
22.53287147540725
 20
13.97734782039657
 30
0.0
 41
1.0
 10
22.56566975042621
 20
14.00878275313894
 30
0.0
 41
1.0
 10
22.62987973887598
 20
14.07032369293343
 30
0.0
 41
1.0
 10
22.71296777084264
 20
14.17266861804396
 30
0.0
 41
1.0
 10
22.78517212449711
 20
14.27967302181242
 30
0.0
 41
1.0
 10
22.8409454048174
 20
14.39429810394502
 30
0.0
 41
1.0
 10
22.8880641487583
 20
14.51299869225374
 30
0.0
 41
1.0
 10
22.9184536687248
 20
14.63860984093517
 30
0.0
 41
1.0
 10
22.93917168153435
 20
14.76949758674311
 30
0.0
 41
1.0
 10
22.9411022585558
 20
14.85886577443229
 30
0.0
 41
1.0
 10
22.94207905617868
 20
14.90408263567294
 30
0.0
 41
1.0
  0
SPLINE
  5
B1
330
1F
100
AcDbEntity
  8
0
  6
Continuous
 62
     7
370
    15
100
AcDbSpline
210
0.0
220
0.0
230
1.0
 70
    12
 71
     3
 72
    15
 73
    11
 74
     0
 42
0.00000001
 43
0.00000001
 40
0.0
 40
0.0
 40
0.0
 40
0.0
 40
0.1136519791513809
 40
0.2290380912867391
 40
0.3475604561267104
 40
0.4695719211950226
 40
0.594807470872627
 40
0.7254160141062882
 40
0.8600717822211428
 40
0.9999999999999999
 40
0.9999999999999999
 40
0.9999999999999999
 40
0.9999999999999999
 10
19.51346112758281
 20
10.81802458649954
 30
0.0
 41
1.0
 10
19.54966204200539
 20
10.90096077731338
 30
0.0
 41
1.0
 10
19.62261623430451
 20
11.06809862202536
 30
0.0
 41
1.0
 10
19.75939309451228
 20
11.30890505255937
 30
0.0
 41
1.0
 10
19.91215558981051
 20
11.54756773076801
 30
0.0
 41
1.0
 10
20.08783444001428
 20
11.77991050809973
 30
0.0
 41
1.0
 10
20.28106090145148
 20
12.01045520394145
 30
0.0
 41
1.0
 10
20.49611825926555
 20
12.23502252820313
 30
0.0
 41
1.0
 10
20.73168518880352
 20
12.45542716201158
 30
0.0
 41
1.0
 10
20.89935726652482
 20
12.59556602302481
 30
0.0
 41
1.0
 10
20.98480309079769
 20
12.66698089814681
 30
0.0
 41
1.0
  0
SPLINE
  5
B2
330
1F
100
AcDbEntity
  8
0
  6
Continuous
 62
     7
370
    15
100
AcDbSpline
210
0.0
220
0.0
230
1.0
 70
    12
 71
     3
 72
    15
 73
    11
 74
     0
 42
0.00000001
 43
0.00000001
 40
0.0
 40
0.0
 40
0.0
 40
0.0
 40
0.1235083861644551
 40
0.2461792251944169
 40
0.3672442055913204
 40
0.4884318053807771
 40
0.6122827952163139
 40
0.737843218328634
 40
0.8664287992937363
 40
1.0
 40
1.0
 40
1.0
 40
1.0
 10
24.18775507411522
 20
14.90408263567294
 30
0.0
 41
1.0
 10
24.18601126181447
 20
14.83780047548321
 30
0.0
 41
1.0
 10
24.18253546252335
 20
14.70568563416408
 30
0.0
 41
1.0
 10
24.15485730546938
 20
14.51014351703569
 30
0.0
 41
1.0
 10
24.10910329527707
 20
14.31956668885529
 30
0.0
 41
1.0
 10
24.04744823961452
 20
14.13278681122715
 30
0.0
 41
1.0
 10
23.96609367369351
 20
13.95093775254586
 30
0.0
 41
1.0
 10
23.86544257283646
 20
13.77467929099839
 30
0.0
 41
1.0
 10
23.75003071653702
 20
13.6011850441344
 30
0.0
 41
1.0
 10
23.65929154469289
 20
13.4935827515151
 30
0.0
 41
1.0
 10
23.61305913347299
 20
13.43875843099872
 30
0.0
 41
1.0
  0
SPLINE
  5
B3
330
1F
100
AcDbEntity
  8
0
  6
Continuous
 62
     7
370
    15
100
AcDbSpline
210
0.0
220
0.0
230
1.0
 70
    12
 71
     3
 72
    15
 73
    11
 74
     0
 42
0.00000001
 43
0.00000001
 40
0.0
 40
0.0
 40
0.0
 40
0.0
 40
0.1020425401355443
 40
0.2100085125394369
 40
0.3251152067147284
 40
0.4473769789368445
 40
0.5749778583434991
 40
0.7104744526483268
 40
0.8519047802205444
 40
1.0
 40
1.0
 40
1.0
 40
1.0
 10
23.61305913347299
 20
13.43875843099872
 30
0.0
 41
1.0
 10
23.57117191976621
 20
13.40037780123694
 30
0.0
 41
1.0
 10
23.48496599591027
 20
13.32138859775474
 30
0.0
 41
1.0
 10
23.34684619650709
 20
13.20438005944753
 30
0.0
 41
1.0
 10
23.19949148032141
 20
13.08091895079628
 30
0.0
 41
1.0
 10
23.04246749536618
 20
12.95196619408427
 30
0.0
 41
1.0
 10
22.87419980440185
 20
12.81887683613182
 30
0.0
 41
1.0
 10
22.69586698735499
 20
12.6813535091607
 30
0.0
 41
1.0
 10
22.50771092410891
 20
12.53788220876444
 30
0.0
 41
1.0
 10
22.37804451640042
 20
12.4421439590079
 30
0.0
 41
1.0
 10
22.31171884903443
 20
12.39317288454241
 30
0.0
 41
1.0
  0
SPLINE
  5
B5
330
1F
100
AcDbEntity
  8
0
  6
Continuous
 62
     7
370
    15
100
AcDbSpline
210
0.0
220
0.0
230
1.0
 70
    12
 71
     3
 72
    15
 73
    11
 74
     0
 42
0.00000001
 43
0.00000001
 40
0.0
 40
0.0
 40
0.0
 40
0.0
 40
0.1227120626034858
 40
0.242542905093092
 40
0.3631951717675062
 40
0.4840877993581711
 40
0.6062244178269387
 40
0.7329947785235256
 40
0.863559280513048
 40
1.0
 40
1.0
 40
1.0
 40
1.0
 10
20.2581587470014
 20
16.36639796107672
 30
0.0
 41
1.0
 10
20.31124130118088
 20
16.41680475853648
 30
0.0
 41
1.0
 10
20.41616005673998
 20
16.51643482613445
 30
0.0
 41
1.0
 10
20.59217640388113
 20
16.64348161869614
 30
0.0
 41
1.0
 10
20.77863127681252
 20
16.75180642235993
 30
0.0
 41
1.0
 10
20.97648660932131
 20
16.84145892703298
 30
0.0
 41
1.0
 10
21.18671636316223
 20
16.90885444919899
 30
0.0
 41
1.0
 10
21.40758254449083
 20
16.95887425014365
 30
0.0
 41
1.0
 10
21.64101127861717
 20
16.98719568061098
 30
0.0
 41
1.0
 10
21.80013583732831
 20
16.99153293492057
 30
0.0
 41
1.0
 10
21.88144911337038
 20
16.99374928895057
 30
0.0
 41
1.0
  0
SPLINE
  5
B9
330
1F
100
AcDbEntity
  8
0
  6
Continuous
 62
     7
370
    15
100
AcDbSpline
210
0.0
220
0.0
230
1.0
 70
    12
 71
     3
 72
    15
 73
    11
 74
     0
 42
0.00000001
 43
0.00000001
 40
0.0
 40
0.0
 40
0.0
 40
0.0
 40
0.099696920732643
 40
0.2019972322953807
 40
0.310452973199298
 40
0.4275325274851239
 40
0.552805019212633
 40
0.6894170967466484
 40
0.8382221135389042
 40
1.0
 40
1.0
 40
1.0
 40
1.0
 10
21.21949567388722
 20
15.7119667197695
 30
0.0
 41
1.0
 10
21.19551102820385
 20
15.68508869656275
 30
0.0
 41
1.0
 10
21.14691542454815
 20
15.63063078294374
 30
0.0
 41
1.0
 10
21.08957664951036
 20
15.53362027761556
 30
0.0
 41
1.0
 10
21.04493335614362
 20
15.42390987220412
 30
0.0
 41
1.0
 10
21.00981972556433
 20
15.30198735358181
 30
0.0
 41
1.0
 10
20.99029746198035
 20
15.16645195975072
 30
0.0
 41
1.0
 10
20.97903505690135
 20
15.01861687892196
 30
0.0
 41
1.0
 10
20.98335490142216
 20
14.85714465057039
 30
0.0
 41
1.0
 10
20.99320978783333
 20
14.74556398906423
 30
0.0
 41
1.0
 10
20.9983430475144
 20
14.68744332820573
 30
0.0
 41
1.0
  0
SPLINE
  5
BA
330
1F
100
AcDbEntity
  8
0
  6
Continuous
 62
     7
370
    15
100
AcDbSpline
210
0.0
220
0.0
230
1.0
 70
    12
 71
     3
 72
    15
 73
    11
 74
     0
 42
0.00000001
 43
0.00000001
 40
0.0
 40
0.0
 40
0.0
 40
0.0
 40
0.1843236947887803
 40
0.3509177899853835
 40
0.50094454758778
 40
0.6330756712395539
 40
0.749089477285057
 40
0.8478667626071041
 40
0.9311949181295993
 40
0.9999999999999999
 40
0.9999999999999999
 40
0.9999999999999999
 40
0.9999999999999999
 10
22.31171884903443
 20
12.39317288454241
 30
0.0
 41
1.0
 10
22.21002643522245
 20
12.31746794456615
 30
0.0
 41
1.0
 10
22.01642312690059
 20
12.17333991882394
 30
0.0
 41
1.0
 10
21.74615687660148
 20
11.95952171972343
 30
0.0
 41
1.0
 10
21.5107494504791
 20
11.75987851935943
 30
0.0
 41
1.0
 10
21.30671031307746
 20
11.57704825345783
 30
0.0
 41
1.0
 10
21.14019694972986
 20
11.40585673974447
 30
0.0
 41
1.0
 10
21.00576048638552
 20
11.2510314091344
 30
0.0
 41
1.0
 10
20.90459289791782
 20
11.11025252693899
 30
0.0
 41
1.0
 10
20.8593392492141
 20
11.01573098955918
 30
0.0
 41
1.0
 10
20.83887244618439
 20
10.97298186892398
 30
0.0
 41
1.0
  0
SPLINE
  5
BB
330
1F
100
AcDbEntity
  8
0
  6
Continuous
 62
     7
370
    15
100
AcDbSpline
210
0.0
220
0.0
230
1.0
 70
    12
 71
     3
 72
    15
 73
    11
 74
     0
 42
0.00000001
 43
0.00000001
 40
0.0
 40
0.0
 40
0.0
 40
0.0
 40
0.1439430583720307
 40
0.2802687250311294
 40
0.4100138748479532
 40
0.5338643594178195
 40
0.6534652011935932
 40
0.7698769029775324
 40
0.8856740681438157
 40
1.0
 40
1.0
 40
1.0
 40
1.0
 10
21.88144911337038
 20
16.99374928895057
 30
0.0
 41
1.0
 10
21.9677673572705
 20
16.99206290813908
 30
0.0
 41
1.0
 10
22.13583592854051
 20
16.98877938891104
 30
0.0
 41
1.0
 10
22.38064874304791
 20
16.96197149505699
 30
0.0
 41
1.0
 10
22.60985886356555
 20
16.91471440314916
 30
0.0
 41
1.0
 10
22.82520542045369
 20
16.85264683749476
 30
0.0
 41
1.0
 10
23.02474546356177
 20
16.76925710360604
 30
0.0
 41
1.0
 10
23.21000689941738
 20
16.66774453381712
 30
0.0
 41
1.0
 10
23.38081883038797
 20
16.54821712697181
 30
0.0
 41
1.0
 10
23.4817008600842
 20
16.45388322990726
 30
0.0
 41
1.0
 10
23.53181939317278
 20
16.40701783122682
 30
0.0
 41
1.0
  0
LINE
  5
187
330
1F
100
AcDbEntity
  8
0
100
AcDbLine
 10
23.54385916097141
 20
13.37561037895737
 30
0.0
 11
23.64504666502769
 21
13.4767978830137
 31
0.0
  0
HATCH
  5
2DD
330
1F
100
AcDbEntity
  8
0
100
AcDbHatch
 10
0.0
 20
0.0
 30
0.0
210
0.0
220
0.0
230
1.0
  2
_USER
 70
     0
 71
     1
 91
        0
 75
     0
 76
     0
 52
45.0
 41
0.01
 77
     0
 78
     1
 53
45.0
 43
0.0
 44
0.0
 45
-0.0070710678118655
 46
0.0070710678118655
 79
     0
 98
        1
 10
0.0
 20
0.0
  0
SPLINE
  5
30B
330
1F
100
AcDbEntity
  8
0
  6
Continuous
 62
     7
370
    15
100
AcDbSpline
210
0.0
220
0.0
230
1.0
 70
    12
 71
     3
 72
    23
 73
    19
 74
     0
 42
0.00000001
 43
0.00000001
 40
0.0
 40
0.0
 40
0.0
 40
0.0
 40
0.0654890124593455
 40
0.1298105795931248
 40
0.1931156184393986
 40
0.2554916193823323
 40
0.3176683547598032
 40
0.3790905566175882
 40
0.4398355699351359
 40
0.5010415794457209
 40
0.5617989726509639
 40
0.6224959900540268
 40
0.6840786931795287
 40
0.7453046672648742
 40
0.8077589922039146
 40
0.87073945640362
 40
0.934986439304417
 40
1.0
 40
1.0
 40
1.0
 40
1.0
 10
26.27834393202662
 20
13.00071967530628
 30
0.0
 41
1.0
 10
26.27758680535327
 20
13.07646591248148
 30
0.0
 41
1.0
 10
26.27608604898811
 20
13.22660809023682
 30
0.0
 41
1.0
 10
26.2607490986089
 20
13.44957109177043
 30
0.0
 41
1.0
 10
26.23462769168989
 20
13.66778173607538
 30
0.0
 41
1.0
 10
26.20120574474669
 20
13.88259929474585
 30
0.0
 41
1.0
 10
26.15286791118493
 20
14.09225219336123
 30
0.0
 41
1.0
 10
26.10082373389329
 20
14.29912379975298
 30
0.0
 41
1.0
 10
26.03230031087361
 20
14.49996170270438
 30
0.0
 41
1.0
 10
25.95885193393791
 20
14.6981678780725
 30
0.0
 41
1.0
 10
25.87187750194215
 20
14.89080948921006
 30
0.0
 41
1.0
 10
25.77744912834093
 20
15.08037172720044
 30
0.0
 41
1.0
 10
25.6703237333295
 20
15.26369718091076
 30
0.0
 41
1.0
 10
25.55575559393969
 20
15.44483864110505
 30
0.0
 41
1.0
 10
25.42919602211811
 20
15.61987999002391
 30
0.0
 41
1.0
 10
25.29316332069329
 20
15.79200847572321
 30
0.0
 41
1.0
 10
25.14829262711008
 20
15.96085800336339
 30
0.0
 41
1.0
 10
25.04333409692447
 20
16.06736044983776
 30
0.0
 41
1.0
 10
24.99054360430478
 20
16.12092747868849
 30
0.0
 41
1.0
  0
SPLINE
  5
30C
330
1F
100
AcDbEntity
  8
0
  6
Continuous
 62
     7
370
    15
100
AcDbSpline
210
0.0
220
0.0
230
1.0
 70
    12
 71
     3
 72
    23
 73
    19
 74
     0
 42
0.00000001
 43
0.00000001
 40
0.0
 40
0.0
 40
0.0
 40
0.0
 40
0.0653191317632192
 40
0.1292316658994808
 40
0.1922049340898817
 40
0.2546521231351326
 40
0.3164700138539618
 40
0.3774536374499654
 40
0.4387263283013587
 40
0.4994767795004992
 40
0.5602705355074191
 40
0.6212865164738545
 40
0.6828133185583106
 40
0.744466783505745
 40
0.8069064465263773
 40
0.8702042522781616
 40
0.9345184701711651
 40
1.0
 40
1.0
 40
1.0
 40
1.0
 10
24.99054360430478
 20
16.12092747868849
 30
0.0
 41
1.0
 10
24.93634083590042
 20
16.1735705850989
 30
0.0
 41
1.0
 10
24.82910251432188
 20
16.27772316881983
 30
0.0
 41
1.0
 10
24.66159958568824
 20
16.42408427420228
 30
0.0
 41
1.0
 10
24.48945882696223
 20
16.55955620486265
 30
0.0
 41
1.0
 10
24.31377596050038
 20
16.68634501386017
 30
0.0
 41
1.0
 10
24.13320581852873
 20
16.80187642944984
 30
0.0
 41
1.0
 10
23.94855120110102
 20
16.90802422112586
 30
0.0
 41
1.0
 10
23.75970789441159
 20
17.00385521146747
 30
0.0
 41
1.0
 10
23.56653602169712
 20
17.09008227345788
 30
0.0
 41
1.0
 10
23.36917120198785
 20
17.16548824356671
 30
0.0
 41
1.0
 10
23.1670166972543
 20
17.22978070449458
 30
0.0
 41
1.0
 10
22.96138489480019
 20
17.28584704278054
 30
0.0
 41
1.0
 10
22.75131429168852
 20
17.33057372465324
 30
0.0
 41
1.0
 10
22.53760830008045
 20
17.36721279947594
 30
0.0
 41
1.0
 10
22.31915198397236
 20
17.39244463611875
 30
0.0
 41
1.0
 10
22.09623327048157
 20
17.40802390460524
 30
0.0
 41
1.0
 10
21.94608507434922
 20
17.40949173195344
 30
0.0
 41
1.0
 10
21.87033580092266
 20
17.41023224604562
 30
0.0
 41
1.0
  0
SPLINE
  5
30D
330
1F
100
AcDbEntity
  8
0
  6
Continuous
 62
     7
370
    15
100
AcDbSpline
210
0.0
220
0.0
230
1.0
 70
    12
 71
     3
 72
    23
 73
    19
 74
     0
 42
0.00000001
 43
0.00000001
 40
0.0
 40
0.0
 40
0.0
 40
0.0
 40
0.066547072884556
 40
0.1319215572224124
 40
0.1962241963187249
 40
0.2596384302251791
 40
0.3223268435629766
 40
0.3839258402782328
 40
0.4449929705936608
 40
0.5062224623701153
 40
0.5669791324623124
 40
0.6276563810189452
 40
0.6886072740670414
 40
0.7494090591568816
 40
0.8111843270784458
 40
0.873124679892153
 40
0.9363298224911053
 40
1.0
 40
1.0
 40
1.0
 40
1.0
 10
17.55710736683569
 20
13.00071967530628
 30
0.0
 41
1.0
 10
17.55781381929986
 20
12.92396464295158
 30
0.0
 41
1.0
 10
17.55921427622675
 20
12.77180703550163
 30
0.0
 41
1.0
 10
17.57529089856239
 20
12.54598483654085
 30
0.0
 41
1.0
 10
17.59864743407203
 20
12.32448953485178
 30
0.0
 41
1.0
 10
17.63333110938288
 20
12.1075539459934
 30
0.0
 41
1.0
 10
17.67855795095269
 20
11.89579141237824
 30
0.0
 41
1.0
 10
17.73289746682125
 20
11.68898768400081
 30
0.0
 41
1.0
 10
17.79618954192959
 20
11.48651097135008
 30
0.0
 41
1.0
 10
17.86930124610717
 20
11.28834543905897
 30
0.0
 41
1.0
 10
17.95441259266622
 20
11.09555757584164
 30
0.0
 41
1.0
 10
18.04739956158006
 20
10.90681573210541
 30
0.0
 41
1.0
 10
18.15125202225041
 20
10.72372379265059
 30
0.0
 41
1.0
 10
18.26492350736573
 20
10.5451137631968
 30
0.0
 41
1.0
 10
18.3876377423081
 20
10.37115392785684
 30
0.0
 41
1.0
 10
18.52124919003594
 20
10.20192156673328
 30
0.0
 41
1.0
 10
18.66303958575572
 20
10.03651496154091
 30
0.0
 41
1.0
 10
18.76510405759696
 20
9.931638076790652
 30
0.0
 41
1.0
 10
18.8163233414889
 20
9.879007432289086
 30
0.0
 41
1.0
  0
SPLINE
  5
30E
330
1F
100
AcDbEntity
  8
0
  6
Continuous
 62
     7
370
    15
100
AcDbSpline
210
0.0
220
0.0
230
1.0
 70
    12
 71
     3
 72
    23
 73
    19
 74
     0
 42
0.00000001
 43
0.00000001
 40
0.0
 40
0.0
 40
0.0
 40
0.0
 40
0.0636935497010403
 40
0.1265933001269195
 40
0.1888990373680517
 40
0.2503422640293606
 40
0.3115339545688685
 40
0.3725072216080464
 40
0.4328173344276193
 40
0.4935963072150985
 40
0.5548482752512831
 40
0.6159378222264308
 40
0.6779802699607408
 40
0.7402662611151465
 40
0.8037037732613922
 40
0.8680300167152741
 40
0.933428498866065
 40
1.0
 40
1.0
 40
1.0
 40
1.0
 10
18.8163233414889
 20
16.12092747868849
 30
0.0
 41
1.0
 10
18.76521825378831
 20
16.06820102585691
 30
0.0
 41
1.0
 10
18.66364499031562
 20
15.9634052388537
 30
0.0
 41
1.0
 10
18.52013716681889
 20
15.79942057424398
 30
0.0
 41
1.0
 10
18.38877786678865
 20
15.62893122450851
 30
0.0
 41
1.0
 10
18.26387725969568
 20
15.45603966599797
 30
0.0
 41
1.0
 10
18.15175173521113
 20
15.27637897919433
 30
0.0
 41
1.0
 10
18.04774274884551
 20
15.09346410529347
 30
0.0
 41
1.0
 10
17.95403254747801
 20
14.90556649782932
 30
0.0
 41
1.0
 10
17.86934498737726
 20
14.71307055396172
 30
0.0
 41
1.0
 10
17.79621593139198
 20
14.5149250198513
 30
0.0
 41
1.0
 10
17.73260302128475
 20
14.31202534394214
 30
0.0
 41
1.0
 10
17.67903023387036
 20
14.1050335836795
 30
0.0
 41
1.0
 10
17.63309264053679
 20
13.89343692557309
 30
0.0
 41
1.0
 10
17.5986915448662
 20
13.67693993740859
 30
0.0
 41
1.0
 10
17.57527885340495
 20
13.45545721151386
 30
0.0
 41
1.0
 10
17.55921737171914
 20
13.22963162189399
 30
0.0
 41
1.0
 10
17.5578148572269
 20
13.07747447522366
 30
0.0
 41
1.0
 10
17.55710736683569
 20
13.00071967530628
 30
0.0
 41
1.0
  0
SPLINE
  5
30F
330
1F
100
AcDbEntity
  8
0
  6
Continuous
 62
     7
370
    15
100
AcDbSpline
210
0.0
220
0.0
230
1.0
 70
    12
 71
     3
 72
    15
 73
    11
 74
     0
 42
0.00000001
 43
0.00000001
 40
0.0
 40
0.0
 40
0.0
 40
0.0
 40
0.1277757446836275
 40
0.2518920836048999
 40
0.3743349739105848
 40
0.4954667520938114
 40
0.6177438299247717
 40
0.7416753459972342
 40
0.8687061433993211
 40
1.0
 40
1.0
 40
1.0
 40
1.0
 10
21.87033580092266
 20
17.41023224604562
 30
0.0
 41
1.0
 10
21.72516686857333
 20
17.40689255242734
 30
0.0
 41
1.0
 10
21.43898653806759
 20
17.40030881162283
 30
0.0
 41
1.0
 10
21.01787591641774
 20
17.3354358393222
 30
0.0
 41
1.0
 10
20.61203808390147
 20
17.23550198999916
 30
0.0
 41
1.0
 10
20.22031613063643
 20
17.0947545144617
 30
0.0
 41
1.0
 10
19.84489428900311
 20
16.91130808414887
 30
0.0
 41
1.0
 10
19.4836535836052
 20
16.68871926359372
 30
0.0
 41
1.0
 10
19.13654036727192
 20
16.42655494971144
 30
0.0
 41
1.0
 10
18.92423024816829
 20
16.22391798930767
 30
0.0
 41
1.0
 10
18.8163233414889
 20
16.12092747868849
 30
0.0
 41
1.0
  0
SPLINE
  5
310
330
1F
100
AcDbEntity
  8
0
  6
Continuous
 62
     7
370
    15
100
AcDbSpline
210
0.0
220
0.0
230
1.0
 70
    12
 71
     3
 72
    23
 73
    19
 74
     0
 42
0.00000001
 43
0.00000001
 40
0.0
 40
0.0
 40
0.0
 40
0.0
 40
0.0655038910809704
 40
0.1298400716013889
 40
0.1931594928865569
 40
0.2555496651978111
 40
0.3176482047892681
 40
0.3791960176280254
 40
0.4399548317655096
 40
0.5011747468309725
 40
0.5619459436687713
 40
0.6226567509874515
 40
0.6840377693522712
 40
0.745512187177932
 40
0.8077287532919242
 40
0.8709931910868052
 40
0.9349716687019338
 40
1.0
 40
1.0
 40
1.0
 40
1.0
 10
21.87033580092266
 20
8.592711544202587
 30
0.0
 41
1.0
 10
21.94608301434223
 20
8.593464393684311
 30
0.0
 41
1.0
 10
22.09622712718347
 20
8.594956671914595
 30
0.0
 41
1.0
 10
22.31917588880386
 20
8.610356011208193
 30
0.0
 41
1.0
 10
22.53743936132161
 20
8.636245963425992
 30
0.0
 41
1.0
 10
22.75195768498432
 20
8.670500087879251
 30
0.0
 41
1.0
 10
22.96235001114401
 20
8.715697262163282
 30
0.0
 41
1.0
 10
23.1684503242072
 20
8.770839396868386
 30
0.0
 41
1.0
 10
23.36962854187548
 20
8.838570999402215
 30
0.0
 41
1.0
 10
23.56774892521195
 20
8.912288792660583
 30
0.0
 41
1.0
 10
23.76051462545814
 20
8.99902166643977
 30
0.0
 41
1.0
 10
23.94944209430425
 20
9.09403771378135
 30
0.0
 41
1.0
 10
24.13433669193481
 20
9.198569943083498
 30
0.0
 41
1.0
 10
24.31332745919435
 20
9.315959339932107
 30
0.0
 41
1.0
 10
24.49066185993005
 20
9.439796042387336
 30
0.0
 41
1.0
 10
24.6605009856695
 20
9.578272011476418
 30
0.0
 41
1.0
 10
24.83106353300504
 20
9.721061020593453
 30
0.0
 41
1.0
 10
24.93709595095383
 20
9.826073764831282
 30
0.0
 41
1.0
 10
24.99054360430478
 20
9.879007432289086
 30
0.0
 41
1.0
  0
SPLINE
  5
311
330
1F
100
AcDbEntity
  8
0
  6
Continuous
 62
     7
370
    15
100
AcDbSpline
210
0.0
220
0.0
230
1.0
 70
    12
 71
     3
 72
    23
 73
    19
 74
     0
 42
0.00000001
 43
0.00000001
 40
0.0
 40
0.0
 40
0.0
 40
0.0
 40
0.065303197966089
 40
0.1292001414273743
 40
0.1921580480651507
 40
0.2545900038883
 40
0.3161598056724219
 40
0.3777204518687288
 40
0.4383957295665293
 40
0.4991313614418537
 40
0.5599102875612834
 40
0.621045221338582
 40
0.6824454237535263
 40
0.7445998894386942
 40
0.8069535493188549
 40
0.8702359143510761
 40
0.9345344435833022
 40
0.9999999999999999
 40
0.9999999999999999
 40
0.9999999999999999
 40
0.9999999999999999
 10
24.99054360430478
 20
9.879007432289086
 30
0.0
 41
1.0
 10
25.04318370992871
 20
9.933212078515698
 30
0.0
 41
1.0
 10
25.14733035669615
 20
10.04045411530105
 30
0.0
 41
1.0
 10
25.29373504148894
 20
10.20792977295647
 30
0.0
 41
1.0
 10
25.4290449127041
 20
10.38017194470252
 30
0.0
 41
1.0
 10
25.55627209486077
 20
10.55526304435927
 30
0.0
 41
1.0
 10
25.66985413334639
 20
10.73754203127417
 30
0.0
 41
1.0
 10
25.77750202162286
 20
10.92102941399888
 30
0.0
 41
1.0
 10
25.87191695087498
 20
11.11062026429335
 30
0.0
 41
1.0
 10
25.95844795642784
 20
11.30292063151475
 30
0.0
 41
1.0
 10
26.03296201583462
 20
11.50074114632802
 30
0.0
 41
1.0
 10
26.10048167932814
 20
11.70192998835559
 30
0.0
 41
1.0
 10
26.15292934185882
 20
11.90916631942453
 30
0.0
 41
1.0
 10
26.20118914983686
 20
12.1188456850068
 30
0.0
 41
1.0
 10
26.23463221406415
 20
12.3336560805081
 30
0.0
 41
1.0
 10
26.26074786408968
 20
12.55186867760217
 30
0.0
 41
1.0
 10
26.27608636624701
 20
12.77483115275897
 30
0.0
 41
1.0
 10
26.27758691173835
 20
12.92497340204462
 30
0.0
 41
1.0
 10
26.27834393202662
 20
13.00071967530628
 30
0.0
 41
1.0
  0
SPLINE
  5
313
330
1F
100
AcDbEntity
  8
0
  6
Continuous
 62
     7
370
    15
100
AcDbSpline
210
0.0
220
0.0
230
1.0
 70
    12
 71
     3
 72
    15
 73
    11
 74
     0
 42
0.00000001
 43
0.00000001
 40
0.0
 40
0.0
 40
0.0
 40
0.0
 40
0.1310434001598454
 40
0.2581205488011103
 40
0.3817211468657639
 40
0.503850370294119
 40
0.6255921350628535
 40
0.7480797025634415
 40
0.872177632259412
 40
0.9999999999999999
 40
0.9999999999999999
 40
0.9999999999999999
 40
0.9999999999999999
 10
18.8163233414889
 20
9.879007432289086
 30
0.0
 41
1.0
 10
18.92428520374396
 20
9.776565410023014
 30
0.0
 41
1.0
 10
19.13694127876085
 20
9.574781947633248
 30
0.0
 41
1.0
 10
19.48348218256936
 20
9.313314978207885
 30
0.0
 41
1.0
 10
19.84319228938443
 20
9.08928186564567
 30
0.0
 41
1.0
 10
20.21996077370873
 20
8.908628486926997
 30
0.0
 41
1.0
 10
20.6112601139935
 20
8.765801801533748
 30
0.0
 41
1.0
 10
21.01777670549038
 20
8.665615075205643
 30
0.0
 41
1.0
 10
21.43912187435874
 20
8.603118866127197
 30
0.0
 41
1.0
 10
21.7251880728674
 20
8.596214675802429
 30
0.0
 41
1.0
 10
21.87033580092266
 20
8.592711544202587
 30
0.0
 41
1.0
  0
SPLINE
  5
314
330
1F
100
AcDbEntity
  8
0
  6
Continuous
 62
     7
370
    15
100
AcDbSpline
210
0.0
220
0.0
230
1.0
 70
    12
 71
     3
 72
    23
 73
    19
 74
     0
 42
0.00000001
 43
0.00000001
 40
0.0
 40
0.0
 40
0.0
 40
0.0
 40
0.0660687890833549
 40
0.1314574361009117
 40
0.1952331619986511
 40
0.2583074802800586
 40
0.3205990286137785
 40
0.3824620005724111
 40
0.4433406924513252
 40
0.504432741404551
 40
0.5650421816533305
 40
0.6258121198807344
 40
0.6866752874212909
 40
0.7480072166614494
 40
0.8098760634904157
 40
0.8724923431791493
 40
0.935925210923669
 40
1.0
 40
1.0
 40
1.0
 40
1.0
 10
25.47346872720049
 20
16.53765725763589
 30
0.0
 41
1.0
 10
25.53424253454683
 20
16.4755324573371
 30
0.0
 41
1.0
 10
25.65516451611619
 20
16.3519223975966
 30
0.0
 41
1.0
 10
25.82423441822375
 20
16.15846277288333
 30
0.0
 41
1.0
 10
25.98125658676978
 20
15.9602180913596
 30
0.0
 41
1.0
 10
26.12769935115168
 20
15.75899252526878
 30
0.0
 41
1.0
 10
26.26139299855528
 20
15.55209272224652
 30
0.0
 41
1.0
 10
26.38518063297785
 20
15.34244321626292
 30
0.0
 41
1.0
 10
26.49528656151752
 20
15.12705001124451
 30
0.0
 41
1.0
 10
26.59454728566001
 20
14.90827583736727
 30
0.0
 41
1.0
 10
26.68162359757578
 20
14.68455737725241
 30
0.0
 41
1.0
 10
26.75945170201026
 20
14.45770811288822
 30
0.0
 41
1.0
 10
26.8215818951218
 20
14.22509687533391
 30
0.0
 41
1.0
 10
26.87509594168923
 20
13.98890700946791
 30
0.0
 41
1.0
 10
26.91486493618829
 20
13.74767130373532
 30
0.0
 41
1.0
 10
26.94599278220448
 20
13.50239118582898
 30
0.0
 41
1.0
 10
26.96189201328594
 20
13.25267603807903
 30
0.0
 41
1.0
 10
26.96454145520616
 20
13.08498653350147
 30
0.0
 41
1.0
 10
26.96587284530801
 20
13.00071967530628
 30
0.0
 41
1.0
  0
SPLINE
  5
315
330
1F
100
AcDbEntity
  8
0
  6
Continuous
 62
     7
370
    15
100
AcDbSpline
210
0.0
220
0.0
230
1.0
 70
    12
 71
     3
 72
    23
 73
    19
 74
     0
 42
0.00000001
 43
0.00000001
 40
0.0
 40
0.0
 40
0.0
 40
0.0
 40
0.0651543087909904
 40
0.1293780198035137
 40
0.1924782441096532
 40
0.2549548043369947
 40
0.316667783800777
 40
0.3779721736661382
 40
0.4388304291404864
 40
0.4999199330397628
 40
0.560543647886082
 40
0.6215900838233163
 40
0.6829754570659466
 40
0.7447535127855611
 40
0.8071551891022822
 40
0.8706432431256977
 40
0.9346173459689027
 40
1.0
 40
1.0
 40
1.0
 40
1.0
 10
18.331893778958
 20
16.53765725763589
 30
0.0
 41
1.0
 10
18.3929012618706
 20
16.5975634672878
 30
0.0
 41
1.0
 10
18.51404485895405
 20
16.71652024731526
 30
0.0
 41
1.0
 10
18.70614355895452
 20
16.88061978196035
 30
0.0
 41
1.0
 10
18.8998986878065
 20
17.03711572815336
 30
0.0
 41
1.0
 10
19.10019366728133
 20
17.17970886546367
 30
0.0
 41
1.0
 10
19.30539408136863
 20
17.31065581594465
 30
0.0
 41
1.0
 10
19.51429567569506
 20
17.43149513994843
 30
0.0
 41
1.0
 10
19.72895337638232
 20
17.54002108085142
 30
0.0
 41
1.0
 10
19.94783740375948
 20
17.63747678253114
 30
0.0
 41
1.0
 10
20.17153993129171
 20
17.72414169270744
 30
0.0
 41
1.0
 10
20.40045842767577
 20
17.79706928920113
 30
0.0
 41
1.0
 10
20.63362673620085
 20
17.86098282763805
 30
0.0
 41
1.0
 10
20.87188719250496
 20
17.91146913542067
 30
0.0
 41
1.0
 10
21.11468785902592
 20
17.95279870915484
 30
0.0
 41
1.0
 10
21.3622960209748
 20
17.98090298620339
 30
0.0
 41
1.0
 10
21.61484712507936
 20
17.99773614943175
 30
0.0
 41
1.0
 10
21.78455692532755
 20
18.00022104567512
 30
0.0
 41
1.0
 10
21.87033580092266
 20
18.00147702267478
 30
0.0
 41
1.0
  0
SPLINE
  5
316
330
1F
100
AcDbEntity
  8
0
  6
Continuous
 62
     7
370
    15
100
AcDbSpline
210
0.0
220
0.0
230
1.0
 70
    12
 71
     3
 72
    23
 73
    19
 74
     0
 42
0.00000001
 43
0.00000001
 40
0.0
 40
0.0
 40
0.0
 40
0.0
 40
0.0640747890763309
 40
0.1275076568208507
 40
0.1901239365095843
 40
0.2519927833385506
 40
0.3133247125787091
 40
0.3741878801192656
 40
0.4349578183466695
 40
0.495567258595449
 40
0.5566593075486747
 40
0.6175379994275887
 40
0.6794009713862214
 40
0.7416925197199413
 40
0.8047668380013488
 40
0.8685425638990881
 40
0.9339312109166451
 40
1.0
 40
1.0
 40
1.0
 40
1.0
 10
26.96587284530801
 20
13.00071967530628
 30
0.0
 41
1.0
 10
26.96454145520616
 20
12.91645281711117
 30
0.0
 41
1.0
 10
26.96189201328594
 20
12.74876331253361
 30
0.0
 41
1.0
 10
26.94599278220448
 20
12.49904816478391
 30
0.0
 41
1.0
 10
26.91486493618829
 20
12.25376804687755
 30
0.0
 41
1.0
 10
26.87509594168923
 20
12.01253234114472
 30
0.0
 41
1.0
 10
26.8215818951218
 20
11.7763424752789
 30
0.0
 41
1.0
 10
26.75945170201026
 20
11.54373123772444
 30
0.0
 41
1.0
 10
26.68162359757578
 20
11.31688197336046
 30
0.0
 41
1.0
 10
26.59454728566001
 20
11.09316351324556
 30
0.0
 41
1.0
 10
26.49528656151752
 20
10.87438933936807
 30
0.0
 41
1.0
 10
26.38518063297785
 20
10.65899613434994
 30
0.0
 41
1.0
 10
26.26139299855528
 20
10.44934662836629
 30
0.0
 41
1.0
 10
26.12769935115168
 20
10.24244682534403
 30
0.0
 41
1.0
 10
25.98125658676978
 20
10.04122125925322
 30
0.0
 41
1.0
 10
25.82423441822375
 20
9.84297657772925
 30
0.0
 41
1.0
 10
25.65516451611619
 20
9.64951695301605
 30
0.0
 41
1.0
 10
25.53424253454683
 20
9.525906893275693
 30
0.0
 41
1.0
 10
25.47346872720049
 20
9.463782092976924
 30
0.0
 41
1.0
  0
SPLINE
  5
317
330
1F
100
AcDbEntity
  8
0
  6
Continuous
 62
     7
370
    15
100
AcDbSpline
210
0.0
220
0.0
230
1.0
 70
    12
 71
     3
 72
    23
 73
    19
 74
     0
 42
0.00000001
 43
0.00000001
 40
0.0
 40
0.0
 40
0.0
 40
0.0
 40
0.0641626952787583
 40
0.1274089559763683
 40
0.189610368140581
 40
0.2514427715819593
 40
0.3130536289087768
 40
0.3735656648372949
 40
0.4345070515639669
 40
0.4953553588721117
 40
0.5561116103182536
 40
0.6173047621012164
 40
0.6792104565602891
 40
0.7415211218745538
 40
0.8044585638362921
 40
0.8684764408623076
 40
0.9337307724040191
 40
1.0
 40
1.0
 40
1.0
 40
1.0
 10
25.47346872720049
 20
9.463782092976924
 30
0.0
 41
1.0
 10
25.4124239462087
 20
9.403922291916384
 30
0.0
 41
1.0
 10
25.29120628569473
 20
9.285057666218616
 30
0.0
 41
1.0
 10
25.09959160269983
 20
9.120225009504221
 30
0.0
 41
1.0
 10
24.90341957405129
 20
8.965953004304012
 30
0.0
 41
1.0
 10
24.70151308792979
 20
8.82295504743307
 30
0.0
 41
1.0
 10
24.49499738073141
 20
8.690825984423089
 30
0.0
 41
1.0
 10
24.28247501912765
 20
8.570926611004055
 30
0.0
 41
1.0
 10
24.0646647165367
 20
8.463293584117341
 30
0.0
 41
1.0
 10
23.84210452823603
 20
8.365067779045543
 30
0.0
 41
1.0
 10
23.61419080018153
 20
8.278878257220185
 30
0.0
 41
1.0
 10
23.38037775849781
 20
8.205603243723989
 30
0.0
 41
1.0
 10
23.14159693508032
 20
8.141995847848495
 30
0.0
 41
1.0
 10
22.89734743501786
 20
8.091461755792963
 30
0.0
 41
1.0
 10
22.64852590206449
 20
8.050166336963748
 30
0.0
 41
1.0
 10
22.39391989921661
 20
8.021877851785277
 30
0.0
 41
1.0
 10
22.13383651445803
 20
8.005271691818631
 30
0.0
 41
1.0
 10
21.95862005559822
 20
8.002741583480006
 30
0.0
 41
1.0
 10
21.87033580092266
 20
8.001466767573142
 30
0.0
 41
1.0
  0
SPLINE
  5
318
330
1F
100
AcDbEntity
  8
0
  6
Continuous
 62
     7
370
    15
100
AcDbSpline
210
0.0
220
0.0
230
1.0
 70
    12
 71
     3
 72
    23
 73
    19
 74
     0
 42
0.00000001
 43
0.00000001
 40
0.0
 40
0.0
 40
0.0
 40
0.0
 40
0.0651881781839426
 40
0.1291566773770239
 40
0.1923522261587146
 40
0.2545504496064623
 40
0.3165024404737861
 40
0.3776488227586082
 40
0.4385387143934387
 40
0.4996599746638776
 40
0.5603152037486013
 40
0.6213933736688279
 40
0.6828106570854193
 40
0.7446208271085053
 40
0.8070549419075805
 40
0.8705759991488858
 40
0.9345833578744436
 40
1.0
 40
1.0
 40
1.0
 40
1.0
 10
18.331893778958
 20
9.463782092976924
 30
0.0
 41
1.0
 10
18.27212807364696
 20
9.524907430609215
 30
0.0
 41
1.0
 10
18.15371488686808
 20
9.646014443139006
 30
0.0
 41
1.0
 10
17.98772964835458
 20
9.836141933206896
 30
0.0
 41
1.0
 10
17.83502816665607
 20
10.03203295319964
 30
0.0
 41
1.0
 10
17.69103963462563
 20
10.23113230590508
 30
0.0
 41
1.0
 10
17.55847663113038
 20
10.43493256740976
 30
0.0
 41
1.0
 10
17.43992616236963
 20
10.64517718486159
 30
0.0
 41
1.0
 10
17.33090591379391
 20
10.85926327721695
 30
0.0
 41
1.0
 10
17.23361287441823
 20
11.07824095776661
 30
0.0
 41
1.0
 10
17.14690458540393
 20
11.30191850983921
 30
0.0
 41
1.0
 10
17.07398867357512
 20
11.53084373369443
 30
0.0
 41
1.0
 10
17.01007197626162
 20
11.76401022348952
 30
0.0
 41
1.0
 10
16.95958652336139
 20
12.00227117199401
 30
0.0
 41
1.0
 10
16.91825671703136
 20
12.24507170459721
 30
0.0
 41
1.0
 10
16.89015250357255
 20
12.49267990315812
 30
0.0
 41
1.0
 10
16.87331932331241
 20
12.7452309974566
 30
0.0
 41
1.0
 10
16.87083442938388
 20
12.91494079903756
 30
0.0
 41
1.0
 10
16.86957845355427
 20
13.00071967530628
 30
0.0
 41
1.0
  0
SPLINE
  5
319
330
1F
100
AcDbEntity
  8
0
  6
Continuous
 62
     7
370
    15
100
AcDbSpline
210
0.0
220
0.0
230
1.0
 70
    12
 71
     3
 72
    23
 73
    19
 74
     0
 42
0.00000001
 43
0.00000001
 40
0.0
 40
0.0
 40
0.0
 40
0.0
 40
0.0653936862967321
 40
0.1297600766041982
 40
0.1928790535158507
 40
0.2552912591064195
 40
0.3174535497038719
 40
0.3788492807356391
 40
0.4395422559374023
 40
0.5005331243524235
 40
0.5612838703059363
 40
0.6224936254921746
 40
0.6836185504560559
 40
0.7452281714208393
 40
0.8077152735574774
 40
0.8708886459303342
 40
0.9348346974729419
 40
1.0
 40
1.0
 40
1.0
 40
1.0
 10
21.87033580092266
 20
8.001466767573142
 30
0.0
 41
1.0
 10
21.78455836685175
 20
8.00274222063231
 30
0.0
 41
1.0
 10
21.61435101127542
 20
8.005273090139912
 30
0.0
 41
1.0
 10
21.36177795116677
 20
8.021860597843393
 30
0.0
 41
1.0
 10
21.11419765270104
 20
8.050261052119343
 30
0.0
 41
1.0
 10
20.87142170530542
 20
8.091644036661567
 30
0.0
 41
1.0
 10
20.63259613922949
 20
8.141796970240424
 30
0.0
 41
1.0
 10
20.39933817629845
 20
8.205536540974904
 30
0.0
 41
1.0
 10
20.17079693441048
 20
8.279516889898428
 30
0.0
 41
1.0
 10
19.94700608927727
 20
8.364662952356554
 30
0.0
 41
1.0
 10
19.72827191235539
 20
8.463645269123596
 30
0.0
 41
1.0
 10
19.5135974888715
 20
8.571395729733162
 30
0.0
 41
1.0
 10
19.30323328810925
 20
8.689911176101727
 30
0.0
 41
1.0
 10
19.10040488831098
 20
8.823886840117023
 30
0.0
 41
1.0
 10
18.90023803438077
 20
8.966342955418806
 30
0.0
 41
1.0
 10
18.70431553181754
 20
9.119705588810387
 30
0.0
 41
1.0
 10
18.51411022627663
 20
9.285580693209187
 30
0.0
 41
1.0
 10
18.39301378237445
 20
9.404008838021724
 30
0.0
 41
1.0
 10
18.331893778958
 20
9.463782092976924
 30
0.0
 41
1.0
  0
SPLINE
  5
31A
330
1F
100
AcDbEntity
  8
0
  6
Continuous
 62
     7
370
    15
100
AcDbSpline
210
0.0
220
0.0
230
1.0
 70
    12
 71
     3
 72
    23
 73
    19
 74
     0
 42
0.00000001
 43
0.00000001
 40
0.0
 40
0.0
 40
0.0
 40
0.0
 40
0.0662580134606918
 40
0.1311256967216042
 40
0.1951327405877967
 40
0.2584309902001304
 40
0.3207311112503959
 40
0.3822625174663936
 40
0.4434453140919514
 40
0.5045435456506581
 40
0.5653815561562744
 40
0.6259757633630222
 40
0.6869904734725405
 40
0.748071314147409
 40
0.8098932542566708
 40
0.8726126042759721
 40
0.9358481623873331
 40
1.0
 40
1.0
 40
1.0
 40
1.0
 10
21.87033580092266
 20
18.00147702267478
 30
0.0
 41
1.0
 10
21.958620563823
 20
18.00021375173409
 30
0.0
 41
1.0
 10
22.13333755940685
 20
17.99771371779707
 30
0.0
 41
1.0
 10
22.39291508060799
 20
17.98100821665131
 30
0.0
 41
1.0
 10
22.64750083711093
 20
17.95264266719508
 30
0.0
 41
1.0
 10
22.89686616410919
 20
17.91162379991973
 30
0.0
 41
1.0
 10
23.14115235472749
 20
17.86115852597067
 30
0.0
 41
1.0
 10
23.37932078703379
 20
17.79712084537368
 30
0.0
 41
1.0
 10
23.61307760795381
 20
17.72377988615449
 30
0.0
 41
1.0
 10
23.84171598588119
 20
17.63818429361298
 30
0.0
 41
1.0
 10
24.06431800744248
 20
17.53995871431548
 30
0.0
 41
1.0
 10
24.28199037550887
 20
17.43149511102352
 30
0.0
 41
1.0
 10
24.49365599679521
 20
17.3110568831599
 30
0.0
 41
1.0
 10
24.70068025978219
 20
17.1797620098246
 30
0.0
 41
1.0
 10
24.90250732793037
 20
17.0365950691381
 30
0.0
 41
1.0
 10
25.09900205262146
 20
16.88160619406236
 30
0.0
 41
1.0
 10
25.29122042057566
 20
16.71639893670556
 30
0.0
 41
1.0
 10
25.41242868037504
 20
16.59752283697725
 30
0.0
 41
1.0
 10
25.47346872720049
 20
16.53765725763589
 30
0.0
 41
1.0
  0
SPLINE
  5
31B
330
1F
100
AcDbEntity
  8
0
  6
Continuous
 62
     7
370
    15
100
AcDbSpline
210
0.0
220
0.0
230
1.0
 70
    12
 71
     3
 72
    23
 73
    19
 74
     0
 42
0.00000001
 43
0.00000001
 40
0.0
 40
0.0
 40
0.0
 40
0.0
 40
0.0654166421255566
 40
0.1294240008511143
 40
0.1929450580924196
 40
0.2553791728914948
 40
0.3171893429145808
 40
0.3786066263311722
 40
0.4396847962513989
 40
0.5003400253361224
 40
0.5614612856065614
 40
0.6223511772413919
 40
0.6834975595262138
 40
0.7454495503935378
 40
0.8076477738412854
 40
0.870843322622976
 40
0.9348118218160575
 40
1.0
 40
1.0
 40
1.0
 40
1.0
 10
16.86957845355427
 20
13.00071967530628
 30
0.0
 41
1.0
 10
16.87083442938388
 20
13.08649855157508
 30
0.0
 41
1.0
 10
16.87331932331241
 20
13.25620835315623
 30
0.0
 41
1.0
 10
16.89015250357255
 20
13.50875944745467
 30
0.0
 41
1.0
 10
16.91825671703136
 20
13.75636764601542
 30
0.0
 41
1.0
 10
16.95958652336139
 20
13.99916817861885
 30
0.0
 41
1.0
 10
17.01007197626162
 20
14.23742912712334
 30
0.0
 41
1.0
 10
17.07398867357512
 20
14.47059561691837
 30
0.0
 41
1.0
 10
17.14690458540393
 20
14.69952084077343
 30
0.0
 41
1.0
 10
17.23361287441823
 20
14.92319839284625
 30
0.0
 41
1.0
 10
17.33090591379388
 20
15.14217607339592
 30
0.0
 41
1.0
 10
17.43992616236963
 20
15.35626216575104
 30
0.0
 41
1.0
 10
17.55847663113038
 20
15.5665067832028
 30
0.0
 41
1.0
 10
17.69103963462563
 20
15.77030704470778
 30
0.0
 41
1.0
 10
17.83502816665607
 20
15.96940639741299
 30
0.0
 41
1.0
 10
17.98772964835458
 20
16.1652974174059
 30
0.0
 41
1.0
 10
18.15371488686808
 20
16.35542490747381
 30
0.0
 41
1.0
 10
18.27212807364696
 20
16.47653192000365
 30
0.0
 41
1.0
 10
18.331893778958
 20
16.53765725763589
 30
0.0
 41
1.0
  0
LINE
  5
428
330
1F
100
AcDbEntity
  8
0
100
AcDbLine
 10
25.03686979482262
 20
9.071812889192802
 30
0.0
 11
25.8817239122538
 21
9.916667006623982
 31
0.0
  0
LINE
  5
429
330
1F
100
AcDbEntity
  8
0
100
AcDbLine
 10
24.74520187379576
 20
8.855098286971716
 30
0.0
 11
26.10740554062741
 21
10.21730195380337
 31
0.0
  0
LINE
  5
42A
330
1F
100
AcDbEntity
  8
0
100
AcDbLine
 10
24.53000446137876
 20
8.714854193360484
 30
0.0
 11
26.25103026213112
 21
10.43587999411284
 31
0.0
  0
LINE
  5
42B
330
1F
100
AcDbEntity
  8
0
100
AcDbLine
 10
24.35043064579409
 20
8.61023369658159
 30
0.0
 11
26.36096553742613
 21
10.62076858821363
 31
0.0
  0
LINE
  5
42C
330
1F
100
AcDbEntity
  8
0
100
AcDbLine
 10
24.19239247649254
 20
8.527148846085815
 30
0.0
 11
26.44749786075614
 21
10.78225423034941
 31
0.0
  0
LINE
  5
42D
330
1F
100
AcDbEntity
  8
0
100
AcDbLine
 10
24.04770440648488
 20
8.457414094883925
 30
0.0
 11
26.5190205468282
 21
10.92873023522725
 31
0.0
  0
LINE
  5
42E
330
1F
100
AcDbEntity
  8
0
100
AcDbLine
 10
23.91228533130153
 20
8.396948338506355
 30
0.0
 11
26.57988031912489
 21
11.06454332632972
 31
0.0
  0
LINE
  5
42F
330
1F
100
AcDbEntity
  8
0
100
AcDbLine
 10
23.78480982482349
 20
8.344426150834082
 30
0.0
 11
26.63238870976491
 21
11.19200503577551
 31
0.0
  0
LINE
  5
430
330
1F
100
AcDbEntity
  8
0
100
AcDbLine
 10
23.66463504403805
 20
8.29920468885442
 30
0.0
 11
26.67845831238285
 21
11.31302795719922
 31
0.0
  0
LINE
  5
431
330
1F
100
AcDbEntity
  8
0
100
AcDbLine
 10
23.5503806103791
 20
8.259903574001244
 30
0.0
 11
26.71951703233587
 21
11.42903999595801
 31
0.0
  0
LINE
  5
432
330
1F
100
AcDbEntity
  8
0
100
AcDbLine
 10
23.44090411463338
 20
8.225380397061292
 30
0.0
 11
26.75529619697916
 21
11.53977247940708
 31
0.0
  0
LINE
  5
433
330
1F
100
AcDbEntity
  8
0
100
AcDbLine
 10
23.33520624859296
 20
8.194635849826652
 30
0.0
 11
26.78584488521963
 21
11.64527448645332
 31
0.0
  0
LINE
  5
434
330
1F
100
AcDbEntity
  8
0
100
AcDbLine
 10
23.23264349162529
 20
8.167026411664757
 30
0.0
 11
24.57348404885196
 21
9.507866968891422
 31
0.0
  0
LINE
  5
435
330
1F
100
AcDbEntity
  8
0
100
AcDbLine
 10
25.36514965109231
 20
10.29953257113178
 30
0.0
 11
26.81259576903684
 21
11.7469786890763
 31
0.0
  0
LINE
  5
436
330
1F
100
AcDbEntity
  8
0
100
AcDbLine
 10
23.133108213239
 20
8.142444452084238
 30
0.0
 11
24.29675435956944
 21
9.306090598414677
 31
0.0
  0
LINE
  5
437
330
1F
100
AcDbEntity
  8
0
100
AcDbLine
 10
25.56746098779498
 20
10.57679722664022
 30
0.0
 11
26.83670455862753
 21
11.84604079747277
 31
0.0
  0
LINE
  5
438
330
1F
100
AcDbEntity
  8
0
100
AcDbLine
 10
23.03664403316904
 20
8.12093359082005
 30
0.0
 11
24.09116069109395
 21
9.175450248744959
 31
0.0
  0
LINE
  5
439
330
1F
100
AcDbEntity
  8
0
100
AcDbLine
 10
25.69194779157924
 20
10.77623734923025
 30
0.0
 11
26.85828660514011
 21
11.94257616279112
 31
0.0
  0
LINE
  5
43A
330
1F
100
AcDbEntity
  8
0
100
AcDbLine
 10
22.94256473246109
 20
8.101807608917879
 30
0.0
 11
23.92262284808305
 21
9.081865724539835
 31
0.0
  0
LINE
  5
43B
330
1F
100
AcDbEntity
  8
0
100
AcDbLine
 10
25.78944448904084
 20
10.94868736549763
 30
0.0
 11
26.87712632661592
 21
12.03636920307271
 31
0.0
  0
LINE
  5
43C
330
1F
100
AcDbEntity
  8
0
100
AcDbLine
 10
22.85045058104226
 20
8.08464677630482
 30
0.0
 11
23.77210716310243
 21
9.006303358364983
 31
0.0
  0
LINE
  5
43D
330
1F
100
AcDbEntity
  8
0
100
AcDbLine
 10
25.86481574445046
 20
11.09901193971302
 30
0.0
 11
26.89354752191948
 21
12.12774371718203
 31
0.0
  0
LINE
  5
43E
330
1F
100
AcDbEntity
  8
0
100
AcDbLine
 10
22.76014491926029
 20
8.069294433328624
 30
0.0
 11
23.63370891089948
 21
8.942858424967813
 31
0.0
  0
LINE
  5
43F
330
1F
100
AcDbEntity
  8
0
100
AcDbLine
 10
25.92803076653354
 20
11.23718028060187
 30
0.0
 11
26.90777090812148
 21
12.21692042218981
 31
0.0
  0
LINE
  5
440
330
1F
100
AcDbEntity
  8
0
100
AcDbLine
 10
22.67172506139183
 20
8.055827894265933
 30
0.0
 11
23.50623161551046
 21
8.890334448384563
 31
0.0
  0
LINE
  5
441
330
1F
100
AcDbEntity
  8
0
100
AcDbLine
 10
25.98099399972843
 20
11.36509683260253
 30
0.0
 11
26.92048491496467
 21
12.30458774783878
 31
0.0
  0
LINE
  5
442
330
1F
100
AcDbEntity
  8
0
100
AcDbLine
 10
22.58506380239734
 20
8.044119954077221
 30
0.0
 11
23.38689688714754
 21
8.84595303882742
 31
0.0
  0
LINE
  5
443
330
1F
100
AcDbEntity
  8
0
100
AcDbLine
 10
24.36002051706727
 20
9.819076668747144
 30
0.0
 11
24.38634110596188
 21
9.845397257641755
 31
0.0
  0
LINE
  5
444
330
1F
100
AcDbEntity
  8
0
100
AcDbLine
 10
26.0258854245258
 20
11.48494157620568
 30
0.0
 11
26.93156835076774
 21
12.39062450244762
 31
0.0
  0
LINE
  5
445
330
1F
100
AcDbEntity
  8
0
100
AcDbLine
 10
22.50035218707513
 20
8.03436165756078
 30
0.0
 11
23.27220320703691
 21
8.806212677522563
 31
0.0
  0
LINE
  5
446
330
1F
100
AcDbEntity
  8
0
100
AcDbLine
 10
24.28506719826149
 20
9.819076668747144
 30
0.0
 11
24.38634110596188
 21
9.920350576447527
 31
0.0
  0
LINE
  5
447
330
1F
100
AcDbEntity
  8
0
100
AcDbLine
 10
26.0656243539796
 20
11.59963382446526
 30
0.0
 11
26.94090414318853
 21
12.47491361367418
 31
0.0
  0
LINE
  5
448
330
1F
100
AcDbEntity
  8
0
100
AcDbLine
 10
22.4171031818735
 20
8.026065971164927
 30
0.0
 11
23.16245969861782
 21
8.771422487909248
 31
0.0
  0
LINE
  5
449
330
1F
100
AcDbEntity
  8
0
100
AcDbLine
 10
24.21011387945572
 20
9.819076668747146
 30
0.0
 11
24.38634110596188
 21
9.995303895253302
 31
0.0
  0
LINE
  5
44A
330
1F
100
AcDbEntity
  8
0
100
AcDbLine
 10
26.09955316106545
 20
11.70851595035688
 30
0.0
 11
26.9484640848389
 21
12.55742687413032
 31
0.0
  0
LINE
  5
44B
330
1F
100
AcDbEntity
  8
0
100
AcDbLine
 10
22.33521727285481
 20
8.019133380952006
 30
0.0
 11
23.05791647638019
 21
8.741832584477393
 31
0.0
  0
LINE
  5
44C
330
1F
100
AcDbEntity
  8
0
100
AcDbLine
 10
24.13516056064994
 20
9.819076668747144
 30
0.0
 11
24.38634110596188
 21
10.07025721405908
 31
0.0
  0
LINE
  5
44D
330
1F
100
AcDbEntity
  8
0
100
AcDbLine
 10
26.12783842199425
 20
11.81175453009145
 30
0.0
 11
26.9542319960177
 21
12.6381481041149
 31
0.0
  0
LINE
  5
44E
330
1F
100
AcDbEntity
  8
0
100
AcDbLine
 10
22.25468777489936
 20
8.013557201802335
 30
0.0
 11
22.95753168385494
 21
8.71640111075791
 31
0.0
  0
LINE
  5
44F
330
1F
100
AcDbEntity
  8
0
100
AcDbLine
 10
24.06020724184417
 20
9.819076668747144
 30
0.0
 11
24.38634110596188
 21
10.14521053286485
 31
0.0
  0
LINE
  5
450
330
1F
100
AcDbEntity
  8
0
100
AcDbLine
 10
26.15270403286446
 20
11.91157345976743
 30
0.0
 11
26.9585127032694
 21
12.71738213017237
 31
0.0
  0
LINE
  5
451
330
1F
100
AcDbEntity
  8
0
100
AcDbLine
 10
22.17541026240251
 20
8.009233008111257
 30
0.0
 11
22.86048346042529
 21
8.694306206134032
 31
0.0
  0
LINE
  5
452
330
1F
100
AcDbEntity
  8
0
100
AcDbLine
 10
23.9852539230384
 20
9.819076668747142
 30
0.0
 11
24.38634110596188
 21
10.22016385167062
 31
0.0
  0
LINE
  5
453
330
1F
100
AcDbEntity
  8
0
100
AcDbLine
 10
26.17557067618885
 20
12.0093934218976
 30
0.0
 11
26.96152801181896
 21
12.7953507575277
 31
0.0
  0
LINE
  5
454
330
1F
100
AcDbEntity
  8
0
100
AcDbLine
 10
22.09737240354603
 20
8.006148468060546
 30
0.0
 11
22.76649548495697
 21
8.675271549471486
 31
0.0
  0
LINE
  5
455
330
1F
100
AcDbEntity
  8
0
100
AcDbLine
 10
23.91030060423262
 20
9.819076668747144
 30
0.0
 11
24.38634110596188
 21
10.2951171704764
 31
0.0
  0
LINE
  5
456
330
1F
100
AcDbEntity
  8
0
100
AcDbLine
 10
26.19564793083454
 20
12.10442399534906
 30
0.0
 11
26.96357535285301
 21
12.87235141736753
 31
0.0
  0
LINE
  5
457
330
1F
100
AcDbEntity
  8
0
100
AcDbLine
 10
22.0203272270535
 20
8.004056610373796
 30
0.0
 11
22.67517000764583
 21
8.658899390966122
 31
0.0
  0
LINE
  5
458
330
1F
100
AcDbEntity
  8
0
100
AcDbLine
 10
23.83534728542685
 20
9.819076668747144
 30
0.0
 11
24.38634110596188
 21
10.37007048928217
 31
0.0
  0
LINE
  5
459
330
1F
100
AcDbEntity
  8
0
100
AcDbLine
 10
26.2123753973586
 20
12.19610478067889
 30
0.0
 11
26.96502716445261
 21
12.9487565477729
 31
0.0
  0
LINE
  5
45A
330
1F
100
AcDbEntity
  8
0
100
AcDbLine
 10
21.94390394953563
 20
8.002586651661696
 30
0.0
 11
22.58606188542116
 21
8.644744587547233
 31
0.0
  0
LINE
  5
45B
330
1F
100
AcDbEntity
  8
0
100
AcDbLine
 10
23.76039396662107
 20
9.819076668747142
 30
0.0
 11
24.38634110596188
 21
10.44502380808794
 31
0.0
  0
LINE
  5
45C
330
1F
100
AcDbEntity
  8
0
100
AcDbLine
 10
26.2264137924199
 20
12.28509649454597
 30
0.0
 11
26.96549696608744
 21
13.02417966821351
 31
0.0
  0
LINE
  5
45D
330
1F
100
AcDbEntity
  8
0
100
AcDbLine
 10
21.86786802486932
 20
8.00150404580116
 30
0.0
 11
22.49893294758463
 21
8.632568968516473
 31
0.0
  0
LINE
  5
45E
330
1F
100
AcDbEntity
  8
0
100
AcDbLine
 10
23.6854406478153
 20
9.819076668747142
 30
0.0
 11
24.38634110596188
 21
10.51997712689372
 31
0.0
  0
LINE
  5
45F
330
1F
100
AcDbEntity
  8
0
100
AcDbLine
 10
26.23844570010609
 20
12.37208172103793
 30
0.0
 11
26.96420895513109
 21
13.09784497606293
 31
0.0
  0
LINE
  5
460
330
1F
100
AcDbEntity
  8
0
100
AcDbLine
 10
21.79407678623297
 20
8.002666125970588
 30
0.0
 11
22.4134709898257
 21
8.622060329563318
 31
0.0
  0
LINE
  5
461
330
1F
100
AcDbEntity
  8
0
100
AcDbLine
 10
23.61048732900953
 20
9.819076668747144
 30
0.0
 11
24.38634110596188
 21
10.59493044569949
 31
0.0
  0
LINE
  5
462
330
1F
100
AcDbEntity
  8
0
100
AcDbLine
 10
26.24894601795004
 20
12.45753535768765
 30
0.0
 11
26.96255447791332
 21
13.17114381765094
 31
0.0
  0
LINE
  5
463
330
1F
100
AcDbEntity
  8
0
100
AcDbLine
 10
21.72060906209243
 20
8.004151720635821
 30
0.0
 11
22.32967852958345
 21
8.613221188126838
 31
0.0
  0
LINE
  5
464
330
1F
100
AcDbEntity
  8
0
100
AcDbLine
 10
23.53553401020375
 20
9.819076668747142
 30
0.0
 11
24.38634110596188
 21
10.66988376450526
 31
0.0
  0
LINE
  5
465
330
1F
100
AcDbEntity
  8
0
100
AcDbLine
 10
26.2578290753576
 20
12.54137173390099
 30
0.0
 11
26.96020543425376
 21
13.24374809279715
 31
0.0
  0
LINE
  5
466
330
1F
100
AcDbEntity
  8
0
100
AcDbLine
 10
21.64772654221629
 20
8.006222519565448
 30
0.0
 11
22.24755934375729
 21
8.606055321106453
 31
0.0
  0
LINE
  5
467
330
1F
100
AcDbEntity
  8
0
100
AcDbLine
 10
23.46058069139798
 20
9.819076668747144
 30
0.0
 11
24.38634110596187
 21
10.74483708331103
 31
0.0
  0
LINE
  5
468
330
1F
100
AcDbEntity
  8
0
100
AcDbLine
 10
26.26501600917467
 20
12.62351198652383
 30
0.0
 11
26.95696460879414
 21
13.3154605861433
 31
0.0
  0
LINE
  5
469
330
1F
100
AcDbEntity
  8
0
100
AcDbLine
 10
21.57570379289244
 20
8.009153089047379
 30
0.0
 11
22.16719227803713
 21
8.600641574192071
 31
0.0
  0
LINE
  5
46A
330
1F
100
AcDbEntity
  8
0
100
AcDbLine
 10
23.38562737259221
 20
9.819076668747144
 30
0.0
 11
24.38634110596188
 21
10.81979040211681
 31
0.0
  0
LINE
  5
46B
330
1F
100
AcDbEntity
  8
0
100
AcDbLine
 10
26.27042387988143
 20
12.70387317603636
 30
0.0
 11
26.95276072393651
 21
13.38621002009145
 31
0.0
  0
LINE
  5
46C
330
1F
100
AcDbEntity
  8
0
100
AcDbLine
 10
21.50467682991444
 20
8.013079444875148
 30
0.0
 11
22.08850683678731
 21
8.596909451748015
 31
0.0
  0
LINE
  5
46D
330
1F
100
AcDbEntity
  8
0
100
AcDbLine
 10
23.31067405378643
 20
9.819076668747144
 30
0.0
 11
24.38634110596188
 21
10.89474372092258
 31
0.0
  0
LINE
  5
46E
330
1F
100
AcDbEntity
  8
0
100
AcDbLine
 10
26.274145233193
 20
12.78254784815371
 30
0.0
 11
26.94751175742974
 21
13.45591437239044
 31
0.0
  0
LINE
  5
46F
330
1F
100
AcDbEntity
  8
0
100
AcDbLine
 10
21.43454269119496
 20
8.01789862496144
 30
0.0
 11
22.01131806375328
 21
8.594673997519767
 31
0.0
  0
LINE
  5
470
330
1F
100
AcDbEntity
  8
0
100
AcDbLine
 10
23.23572073498066
 20
9.819076668747144
 30
0.0
 11
24.38634110596188
 21
10.96969703972836
 31
0.0
  0
LINE
  5
471
330
1F
100
AcDbEntity
  8
0
100
AcDbLine
 10
26.27637671129043
 20
12.85973264505691
 30
0.0
 11
26.9411156996125
 21
13.52447163337898
 31
0.0
  0
LINE
  5
472
330
1F
100
AcDbEntity
  8
0
100
AcDbLine
 10
21.36529587443961
 20
8.023605127011866
 30
0.0
 11
21.93510842459023
 21
8.593417677162485
 31
0.0
  0
LINE
  5
473
330
1F
100
AcDbEntity
  8
0
100
AcDbLine
 10
23.16076741617489
 20
9.819076668747144
 30
0.0
 11
24.31467261636753
 21
10.97298186893979
 31
0.0
  0
LINE
  5
474
330
1F
100
AcDbEntity
  8
0
100
AcDbLine
 10
26.27763453079512
 20
12.93594378336738
 30
0.0
 11
26.93376429707088
 21
13.59207354964314
 31
0.0
  0
LINE
  5
475
330
1F
100
AcDbEntity
  8
0
100
AcDbLine
 10
21.2969122977117
 20
8.030174869089727
 30
0.0
 11
21.85970994150784
 21
8.592972512885868
 31
0.0
  0
LINE
  5
476
330
1F
100
AcDbEntity
  8
0
100
AcDbLine
 10
23.08581409736911
 20
9.819076668747144
 30
0.0
 11
24.23971929756176
 21
10.97298186893979
 31
0.0
  0
LINE
  5
477
330
1F
100
AcDbEntity
  8
0
100
AcDbLine
 10
26.27823326399147
 20
13.0114958353695
 30
0.0
 11
26.92553181122962
 21
13.65879438260765
 31
0.0
  0
LINE
  5
478
330
1F
100
AcDbEntity
  8
0
100
AcDbLine
 10
21.22941959849915
 20
8.03763548868295
 30
0.0
 11
21.78660689500344
 21
8.59482278518725
 31
0.0
  0
LINE
  5
479
330
1F
100
AcDbEntity
  8
0
100
AcDbLine
 10
23.01086077856334
 20
9.819076668747142
 30
0.0
 11
24.16476597875599
 21
10.97298186893979
 31
0.0
  0
LINE
  5
47A
330
1F
100
AcDbEntity
  8
0
100
AcDbLine
 10
26.27736513642044
 20
13.08558102660424
 30
0.0
 11
26.9165512860158
 21
13.7247671761996
 31
0.0
  0
LINE
  5
47B
330
1F
100
AcDbEntity
  8
0
100
AcDbLine
 10
21.16277559221828
 20
8.045944801207858
 30
0.0
 11
21.71379156377875
 21
8.596960772768327
 31
0.0
  0
LINE
  5
47C
330
1F
100
AcDbEntity
  8
0
100
AcDbLine
 10
22.93590745975757
 20
9.819076668747144
 30
0.0
 11
24.08981265995022
 21
10.97298186893979
 31
0.0
  0
LINE
  5
47D
330
1F
100
AcDbEntity
  8
0
100
AcDbLine
 10
26.27597946966799
 20
13.15914867865757
 30
0.0
 11
26.9069289747892
 21
13.79009818377878
 31
0.0
  0
LINE
  5
47E
330
1F
100
AcDbEntity
  8
0
100
AcDbLine
 10
21.09697873201289
 20
8.05510125980824
 30
0.0
 11
21.64149098959271
 21
8.599613517388063
 31
0.0
  0
LINE
  5
47F
330
1F
100
AcDbEntity
  8
0
100
AcDbLine
 10
22.86095414095179
 20
9.819076668747144
 30
0.0
 11
24.01485934114444
 21
10.97298186893979
 31
0.0
  0
LINE
  5
480
330
1F
100
AcDbEntity
  8
0
100
AcDbLine
 10
26.27365769118198
 20
13.23178021897733
 30
0.0
 11
26.89666502028181
 21
13.85478754807715
 31
0.0
  0
LINE
  5
481
330
1F
100
AcDbEntity
  8
0
100
AcDbLine
 10
21.03200159806019
 20
8.065077444661314
 30
0.0
 11
21.56992015376637
 21
8.602996000367499
 31
0.0
  0
LINE
  5
482
330
1F
100
AcDbEntity
  8
0
100
AcDbLine
 10
22.78600082214602
 20
9.819076668747142
 30
0.0
 11
23.93990602233866
 21
10.97298186893979
 31
0.0
  0
LINE
  5
483
330
1F
100
AcDbEntity
  8
0
100
AcDbLine
 10
26.27011151315558
 20
13.3031873597567
 30
0.0
 11
26.88569405919
 21
13.91876990579113
 31
0.0
  0
LINE
  5
484
330
1F
100
AcDbEntity
  8
0
100
AcDbLine
 10
20.9677639970531
 20
8.075793162459997
 30
0.0
 11
21.49927759542825
 21
8.607306760835145
 31
0.0
  0
LINE
  5
485
330
1F
100
AcDbEntity
  8
0
100
AcDbLine
 10
22.71104750334025
 20
9.819076668747144
 30
0.0
 11
23.86495270353289
 21
10.97298186893979
 31
0.0
  0
LINE
  5
486
330
1F
100
AcDbEntity
  8
0
100
AcDbLine
 10
26.26535851662473
 20
13.37338768203163
 30
0.0
 11
26.87394531815285
 21
13.98197448355975
 31
0.0
  0
LINE
  5
487
330
1F
100
AcDbEntity
  8
0
100
AcDbLine
 10
20.90418512993564
 20
8.087167614148317
 30
0.0
 11
21.42983312936801
 21
8.612815613580684
 31
0.0
  0
LINE
  5
488
330
1F
100
AcDbEntity
  8
0
100
AcDbLine
 10
22.63609418453447
 20
9.819076668747146
 30
0.0
 11
23.78999938472712
 21
10.97298186893979
 31
0.0
  0
LINE
  5
489
330
1F
100
AcDbEntity
  8
0
100
AcDbLine
 10
26.25951158428812
 20
13.44249406850079
 30
0.0
 11
26.86137941038056
 21
14.04436189459323
 31
0.0
  0
LINE
  5
48A
330
1F
100
AcDbEntity
  8
0
100
AcDbLine
 10
20.84119969405632
 20
8.099135497074764
 30
0.0
 11
21.36162981833456
 21
8.619565621353003
 31
0.0
  0
LINE
  5
48B
330
1F
100
AcDbEntity
  8
0
100
AcDbLine
 10
22.5611408657287
 20
9.819076668747142
 30
0.0
 11
23.71504606592135
 21
10.97298186893979
 31
0.0
  0
LINE
  5
48C
330
1F
100
AcDbEntity
  8
0
100
AcDbLine
 10
26.25268241184679
 20
13.51061821486523
 30
0.0
 11
26.84805043014537
 21
14.10598623316382
 31
0.0
  0
LINE
  5
48D
330
1F
100
AcDbEntity
  8
0
100
AcDbLine
 10
20.77880547992712
 20
8.111694601751342
 30
0.0
 11
21.29456593197762
 21
8.627455053801842
 31
0.0
  0
LINE
  5
48E
330
1F
100
AcDbEntity
  8
0
100
AcDbLine
 10
22.48618754692292
 20
9.819076668747144
 30
0.0
 11
23.64009274711557
 21
10.97298186893979
 31
0.0
  0
LINE
  5
48F
330
1F
100
AcDbEntity
  8
0
100
AcDbLine
 10
26.24493960969653
 20
13.57782873152075
 30
0.0
 11
26.83404604379005
 21
14.16693516561427
 31
0.0
  0
LINE
  5
490
330
1F
100
AcDbEntity
  8
0
100
AcDbLine
 10
20.71705750475946
 20
8.124899945389455
 30
0.0
 11
21.22855869387084
 21
8.636401134500831
 31
0.0
  0
LINE
  5
491
330
1F
100
AcDbEntity
  8
0
100
AcDbLine
 10
22.41123422811715
 20
9.819076668747146
 30
0.0
 11
23.5651394283098
 21
10.97298186893979
 31
0.0
  0
LINE
  5
492
330
1F
100
AcDbEntity
  8
0
100
AcDbLine
 10
26.23645655079398
 20
13.64429899142397
 30
0.0
 11
26.81944850435591
 21
14.22729094498591
 31
0.0
  0
LINE
  5
493
330
1F
100
AcDbEntity
  8
0
100
AcDbLine
 10
20.65601765218011
 20
8.138813411615882
 30
0.0
 11
21.16353325446727
 21
8.646329013903037
 31
0.0
  0
LINE
  5
494
330
1F
100
AcDbEntity
  8
0
100
AcDbLine
 10
22.33628090931138
 20
9.819076668747142
 30
0.0
 11
23.49018610950402
 21
10.97298186893979
 31
0.0
  0
LINE
  5
495
330
1F
100
AcDbEntity
  8
0
100
AcDbLine
 10
26.22730598856377
 20
13.71010174799954
 30
0.0
 11
26.80431683700344
 21
14.2871125964392
 31
0.0
  0
LINE
  5
496
330
1F
100
AcDbEntity
  8
0
100
AcDbLine
 10
20.59572837605636
 20
8.153477454297896
 30
0.0
 11
21.09942171782598
 21
8.65717079606752
 31
0.0
  0
LINE
  5
497
330
1F
100
AcDbEntity
  8
0
100
AcDbLine
 10
22.2613275905056
 20
9.819076668747144
 30
0.0
 11
23.41523279069825
 21
10.97298186893979
 31
0.0
  0
LINE
  5
498
330
1F
100
AcDbEntity
  8
0
100
AcDbLine
 10
26.21742830964165
 20
13.77517738788319
 30
0.0
 11
26.78858635311787
 21
14.34633543135941
 31
0.0
  0
LINE
  5
499
330
1F
100
AcDbEntity
  8
0
100
AcDbLine
 10
20.53618161026144
 20
8.168884007308753
 30
0.0
 11
21.03616230440395
 21
8.668864701451264
 31
0.0
  0
LINE
  5
49A
330
1F
100
AcDbEntity
  8
0
100
AcDbLine
 10
22.18637427169983
 20
9.819076668747144
 30
0.0
 11
23.34027947189248
 21
10.97298186893979
 31
0.0
  0
LINE
  5
49B
330
1F
100
AcDbEntity
  8
0
100
AcDbLine
 10
26.20653219711735
 20
13.83923459416467
 30
0.0
 11
26.77216967658561
 21
14.40487207363292
 31
0.0
  0
LINE
  5
49C
330
1F
100
AcDbEntity
  8
0
100
AcDbLine
 10
20.47732287858727
 20
8.184978594440354
 30
0.0
 11
20.97380315804609
 21
8.68145887389918
 31
0.0
  0
LINE
  5
49D
330
1F
100
AcDbEntity
  8
0
100
AcDbLine
 10
22.11142095289405
 20
9.819076668747142
 30
0.0
 11
23.2653261530867
 21
10.97298186893979
 31
0.0
  0
LINE
  5
49E
330
1F
100
AcDbEntity
  8
0
100
AcDbLine
 10
26.19459035020351
 20
13.90224606605659
 30
0.0
 11
26.75498918816941
 21
14.46264490402249
 31
0.0
  0
LINE
  5
49F
330
1F
100
AcDbEntity
  8
0
100
AcDbLine
 10
20.41909649193768
 20
8.201705526596545
 30
0.0
 11
20.9121035941283
 21
8.69471262878716
 31
0.0
  0
LINE
  5
4A0
330
1F
100
AcDbEntity
  8
0
100
AcDbLine
 10
22.03646763408828
 20
9.819076668747144
 30
0.0
 11
23.19037283428093
 21
10.97298186893979
 31
0.0
  0
LINE
  5
4A1
330
1F
100
AcDbEntity
  8
0
100
AcDbLine
 10
26.18163797738517
 20
13.96424701204402
 30
0.0
 11
26.73701132488367
 21
14.51962035954253
 31
0.0
  0
LINE
  5
4A2
330
1F
100
AcDbEntity
  8
0
100
AcDbLine
 10
20.36145403195967
 20
8.219016385424304
 30
0.0
 11
20.85108859526783
 21
8.708650948732465
 31
0.0
  0
LINE
  5
4A3
330
1F
100
AcDbEntity
  8
0
100
AcDbLine
 10
21.96151431528251
 20
9.819076668747142
 30
0.0
 11
23.11541951547515
 21
10.97298186893979
 31
0.0
  0
LINE
  5
4A4
330
1F
100
AcDbEntity
  8
0
100
AcDbLine
 10
26.16789488940924
 20
14.02545724287388
 30
0.0
 11
26.71831285783553
 21
14.57587521130016
 31
0.0
  0
LINE
  5
4A5
330
1F
100
AcDbEntity
  8
0
100
AcDbLine
 10
20.30438027457715
 20
8.236895946847559
 30
0.0
 11
20.79105106509864
 21
8.723566737369044
 31
0.0
  0
LINE
  5
4A6
330
1F
100
AcDbEntity
  8
0
100
AcDbLine
 10
21.88656099647674
 20
9.819076668747142
 30
0.0
 11
23.04046619666938
 21
10.97298186893979
 31
0.0
  0
LINE
  5
4A7
330
1F
100
AcDbEntity
  8
0
100
AcDbLine
 10
26.15359608243606
 20
14.08611175470647
 30
0.0
 11
26.69898997240857
 21
14.63150564467898
 31
0.0
  0
LINE
  5
4A8
330
1F
100
AcDbEntity
  8
0
100
AcDbLine
 10
20.24787358225701
 20
8.255342573333198
 30
0.0
 11
20.73174203070202
 21
8.739211021778202
 31
0.0
  0
LINE
  5
4A9
330
1F
100
AcDbEntity
  8
0
100
AcDbLine
 10
21.81160767767096
 20
9.819076668747142
 30
0.0
 11
22.96551287786361
 21
10.97298186893979
 31
0.0
  0
LINE
  5
4AA
330
1F
100
AcDbEntity
  8
0
100
AcDbLine
 10
26.13889775373588
 20
14.14636674481206
 30
0.0
 11
26.67913176652241
 21
14.68660075759859
 31
0.0
  0
LINE
  5
4AB
330
1F
100
AcDbEntity
  8
0
100
AcDbLine
 10
20.1919361619421
 20
8.274358471824051
 30
0.0
 11
20.67309277929846
 21
8.755515089180417
 31
0.0
  0
LINE
  5
4AC
330
1F
100
AcDbEntity
  8
0
100
AcDbLine
 10
21.73665435886519
 20
9.819076668747144
 30
0.0
 11
22.89055955905784
 21
10.97298186893979
 31
0.0
  0
LINE
  5
4AD
330
1F
100
AcDbEntity
  8
0
100
AcDbLine
 10
26.12361794074003
 20
14.20604025062198
 30
0.0
 11
26.65880230218962
 21
14.74122461207157
 31
0.0
  0
LINE
  5
4AE
330
1F
100
AcDbEntity
  8
0
100
AcDbLine
 10
20.13657282535357
 20
8.293948454041304
 30
0.0
 11
20.6151330907901
 21
8.772508719477829
 31
0.0
  0
LINE
  5
4AF
330
1F
100
AcDbEntity
  8
0
100
AcDbLine
 10
21.66170104005941
 20
9.819076668747144
 30
0.0
 11
22.81560624025206
 21
10.97298186893979
 31
0.0
  0
LINE
  5
4B0
330
1F
100
AcDbEntity
  8
0
100
AcDbLine
 10
26.10755490858873
 20
14.26493053727646
 30
0.0
 11
26.63798458309555
 21
14.79536021178328
 31
0.0
  0
LINE
  5
4B1
330
1F
100
AcDbEntity
  8
0
100
AcDbLine
 10
20.08179400562208
 20
8.314122953115586
 30
0.0
 11
20.55816360427325
 21
8.790492551766755
 31
0.0
  0
LINE
  5
4B2
330
1F
100
AcDbEntity
  8
0
100
AcDbLine
 10
21.58674772125364
 20
9.819076668747142
 30
0.0
 11
22.74065292144629
 21
10.97298186893979
 31
0.0
  0
LINE
  5
4B3
330
1F
100
AcDbEntity
  8
0
100
AcDbLine
 10
26.09051560062721
 20
14.32284454812071
 30
0.0
 11
26.61664241999211
 21
14.84897136748561
 31
0.0
  0
LINE
  5
4B4
330
1F
100
AcDbEntity
  8
0
100
AcDbLine
 10
20.02761724743158
 20
8.334899513730852
 30
0.0
 11
20.50180463043346
 21
8.809086896732738
 31
0.0
  0
LINE
  5
4B5
330
1F
100
AcDbEntity
  8
0
100
AcDbLine
 10
21.51179440244787
 20
9.819076668747142
 30
0.0
 11
22.66569960264051
 21
10.97298186893979
 31
0.0
  0
LINE
  5
4B6
330
1F
100
AcDbEntity
  8
0
100
AcDbLine
 10
26.07249259449846
 20
14.37977486079773
 30
0.0
 11
26.59475707623722
 21
14.90203934253649
 31
0.0
  0
LINE
  5
4B7
330
1F
100
AcDbEntity
  8
0
100
AcDbLine
 10
19.97405967568146
 20
8.356295260786512
 30
0.0
 11
20.44603269013829
 21
8.82826827524334
 31
0.0
  0
LINE
  5
4B8
330
1F
100
AcDbEntity
  8
0
100
AcDbLine
 10
21.43684108364209
 20
9.819076668747144
 30
0.0
 11
22.59074628383474
 21
10.97298186893979
 31
0.0
  0
LINE
  5
4B9
330
1F
100
AcDbEntity
  8
0
100
AcDbLine
 10
26.05368399715124
 20
14.43591958225629
 30
0.0
 11
26.57230927608241
 21
14.95454486118746
 31
0.0
  0
LINE
  5
4BA
330
1F
100
AcDbEntity
  8
0
100
AcDbLine
 10
19.92112936116426
 20
8.378318265075086
 30
0.0
 11
20.39105868543749
 21
8.848247589348317
 31
0.0
  0
LINE
  5
4BB
330
1F
100
AcDbEntity
  8
0
100
AcDbLine
 10
21.36188776483632
 20
9.819076668747142
 30
0.0
 11
22.51579296502897
 21
10.97298186893979
 31
0.0
  0
LINE
  5
4BC
330
1F
100
AcDbEntity
  8
0
100
AcDbLine
 10
26.03430392862099
 20
14.49149283253181
 30
0.0
 11
26.54932009579302
 21
15.00650899970385
 31
0.0
  0
LINE
  5
4BD
330
1F
100
AcDbEntity
  8
0
100
AcDbLine
 10
19.86880361304219
 20
8.400945835758787
 30
0.0
 11
20.33676866521758
 21
8.86891088793418
 31
0.0
  0
LINE
  5
4BE
330
1F
100
AcDbEntity
  8
0
100
AcDbLine
 10
21.28693444603055
 20
9.819076668747142
 30
0.0
 11
22.44083964622319
 21
10.97298186893979
 31
0.0
  0
LINE
  5
4BF
330
1F
100
AcDbEntity
  8
0
100
AcDbLine
 10
26.01451322140792
 20
14.54665544412452
 30
0.0
 11
26.52581627514969
 21
15.05795849786629
 31
0.0
  0
LINE
  5
4C0
330
1F
100
AcDbEntity
  8
0
100
AcDbLine
 10
19.8170274139262
 20
8.424122955448569
 30
0.0
 11
20.28298877681589
 21
8.89008431833826
 31
0.0
  0
LINE
  5
4C1
330
1F
100
AcDbEntity
  8
0
100
AcDbLine
 10
21.21198112722477
 20
9.819076668747144
 30
0.0
 11
22.36588632741742
 21
10.97298186893979
 31
0.0
  0
LINE
  5
4C2
330
1F
100
AcDbEntity
  8
0
100
AcDbLine
 10
25.99424762524356
 20
14.60134316676593
 30
0.0
 11
26.50182422038044
 21
15.10891976190281
 31
0.0
  0
LINE
  5
4C3
330
1F
100
AcDbEntity
  8
0
100
AcDbLine
 10
19.76574236225056
 20
8.447791222578706
 30
0.0
 11
20.2298124305756
 21
8.91186129090374
 31
0.0
  0
LINE
  5
4C4
330
1F
100
AcDbEntity
  8
0
100
AcDbLine
 10
21.137027808419
 20
9.819076668747142
 30
0.0
 11
22.29093300861165
 21
10.97298186893979
 31
0.0
  0
LINE
  5
4C5
330
1F
100
AcDbEntity
  8
0
100
AcDbLine
 10
25.97336294005553
 20
14.65541180038368
 30
0.0
 11
26.47736330478384
 21
15.15941216511199
 31
0.0
  0
LINE
  5
4C6
330
1F
100
AcDbEntity
  8
0
100
AcDbLine
 10
19.71489697137907
 20
8.471899150512991
 30
0.0
 11
20.17738190382246
 21
8.93438408295638
 31
0.0
  0
LINE
  5
4C7
330
1F
100
AcDbEntity
  8
0
100
AcDbLine
 10
21.06207448961322
 20
9.819076668747142
 30
0.0
 11
22.21597968980587
 21
10.97298186893979
 31
0.0
  0
LINE
  5
4C8
330
1F
100
AcDbEntity
  8
0
100
AcDbLine
 10
25.9517569140851
 20
14.70875909321901
 30
0.0
 11
26.45242625801639
 21
15.20942843715031
 31
0.0
  0
LINE
  5
4C9
330
1F
100
AcDbEntity
  8
0
100
AcDbLine
 10
19.66445783640378
 20
8.496413334343474
 30
0.0
 11
20.12541435223901
 21
8.957369850178704
 31
0.0
  0
LINE
  5
4CA
330
1F
100
AcDbEntity
  8
0
100
AcDbLine
 10
20.98712117080745
 20
9.819076668747144
 30
0.0
 11
22.1410263710001
 21
10.97298186893979
 31
0.0
  0
LINE
  5
4CB
330
1F
100
AcDbEntity
  8
0
100
AcDbLine
 10
25.92938320947725
 20
14.76133870741694
 30
0.0
 11
26.42699227739817
 21
15.25894777533786
 31
0.0
  0
LINE
  5
4CC
330
1F
100
AcDbEntity
  8
0
100
AcDbLine
 10
19.6144295294583
 20
8.52133834620377
 30
0.0
 11
20.07395135023239
 21
8.980860166977857
 31
0.0
  0
LINE
  5
4CD
330
1F
100
AcDbEntity
  8
0
100
AcDbLine
 10
20.91216785200168
 20
9.819076668747146
 30
0.0
 11
22.06607305219433
 21
10.97298186893979
 31
0.0
  0
LINE
  5
4CE
330
1F
100
AcDbEntity
  8
0
100
AcDbLine
 10
25.90632800722485
 20
14.81323682397032
 30
0.0
 11
26.40103781908718
 21
15.30794663583264
 31
0.0
  0
LINE
  5
4CF
330
1F
100
AcDbEntity
  8
0
100
AcDbLine
 10
19.56482400313442
 20
8.546686138685653
 30
0.0
 11
20.0233016531681
 21
9.005163788719344
 31
0.0
  0
LINE
  5
4D0
330
1F
100
AcDbEntity
  8
0
100
AcDbLine
 10
20.8372145331959
 20
9.819076668747142
 30
0.0
 11
21.99111973338855
 21
10.97298186893979
 31
0.0
  0
LINE
  5
4D1
330
1F
100
AcDbEntity
  8
0
100
AcDbLine
 10
25.88269620806681
 20
14.86455834361805
 30
0.0
 11
26.37454355926079
 21
15.35640569481203
 31
0.0
  0
LINE
  5
4D2
330
1F
100
AcDbEntity
  8
0
100
AcDbLine
 10
19.51566555494733
 20
8.57248100930434
 30
0.0
 11
19.97310366142354
 21
9.029919115780553
 31
0.0
  0
LINE
  5
4D3
330
1F
100
AcDbEntity
  8
0
100
AcDbLine
 10
20.76226121439013
 20
9.819076668747144
 30
0.0
 11
21.91616641458278
 21
10.97298186893979
 31
0.0
  0
LINE
  5
4D4
330
1F
100
AcDbEntity
  8
0
100
AcDbLine
 10
25.85857499709936
 20
14.91539045145637
 30
0.0
 11
26.34752019261635
 21
15.40433564697336
 31
0.0
  0
LINE
  5
4D5
330
1F
100
AcDbEntity
  8
0
100
AcDbLine
 10
19.46699088673726
 20
8.598759659900052
 30
0.0
 11
19.92337771539259
 21
9.05514648855538
 31
0.0
  0
LINE
  5
4D6
330
1F
100
AcDbEntity
  8
0
100
AcDbLine
 10
20.68730789558436
 20
9.819076668747146
 30
0.0
 11
21.841213095777
 21
10.97298186893979
 31
0.0
  0
LINE
  5
4D7
330
1F
100
AcDbEntity
  8
0
100
AcDbLine
 10
25.83397436241779
 20
14.96574313558058
 30
0.0
 11
26.32000245294521
 21
15.451771226108
 31
0.0
  0
LINE
  5
4D8
330
1F
100
AcDbEntity
  8
0
100
AcDbLine
 10
19.41881088284295
 20
8.625532974811513
 30
0.0
 11
19.87450330994457
 21
9.081225401913128
 31
0.0
  0
LINE
  5
4D9
330
1F
100
AcDbEntity
  8
0
100
AcDbLine
 10
20.61235457677858
 20
9.819076668747142
 30
0.0
 11
21.76625977697123
 21
10.97298186893979
 31
0.0
  0
LINE
  5
4DA
330
1F
100
AcDbEntity
  8
0
100
AcDbLine
 10
25.80883078772439
 20
15.01555287969295
 30
0.0
 11
26.29203619901094
 21
15.4987582909795
 31
0.0
  0
LINE
  5
4DB
330
1F
100
AcDbEntity
  8
0
100
AcDbLine
 10
19.3711662155031
 20
8.652841626277429
 30
0.0
 11
19.82606970836274
 21
9.107745119137073
 31
0.0
  0
LINE
  5
4DC
330
1F
100
AcDbEntity
  8
0
100
AcDbLine
 10
20.53740125797281
 20
9.819076668747144
 30
0.0
 11
21.69130645816546
 21
10.97298186893979
 31
0.0
  0
LINE
  5
4DD
330
1F
100
AcDbEntity
  8
0
100
AcDbLine
 10
25.7830702656179
 20
15.06474567639223
 30
0.0
 11
26.26361897871115
 21
15.54529438948549
 31
0.0
  0
LINE
  5
4DE
330
1F
100
AcDbEntity
  8
0
100
AcDbLine
 10
19.32409636753997
 20
8.680725097120071
 30
0.0
 11
19.77810980317214
 21
9.13473853275225
 31
0.0
  0
LINE
  5
4DF
330
1F
100
AcDbEntity
  8
0
100
AcDbLine
 10
20.46244793916704
 20
9.819076668747146
 30
0.0
 11
21.61635313935968
 21
10.97298186893979
 31
0.0
  0
LINE
  5
4E0
330
1F
100
AcDbEntity
  8
0
100
AcDbLine
 10
25.75663657638075
 20
15.11326530596086
 30
0.0
 11
26.23483666129081
 21
15.59146539087092
 31
0.0
  0
LINE
  5
4E1
330
1F
100
AcDbEntity
  8
0
100
AcDbLine
 10
19.27762650642049
 20
8.70920855480637
 30
0.0
 11
19.73094764029808
 21
9.162529688683955
 31
0.0
  0
LINE
  5
4E2
330
1F
100
AcDbEntity
  8
0
100
AcDbLine
 10
20.38749462036126
 20
9.819076668747142
 30
0.0
 11
21.54139982055391
 21
10.97298186893979
 31
0.0
  0
LINE
  5
4E3
330
1F
100
AcDbEntity
  8
0
100
AcDbLine
 10
25.72956950184173
 20
15.16115155022761
 30
0.0
 11
26.20567898077595
 21
15.63726102916183
 31
0.0
  0
LINE
  5
4E4
330
1F
100
AcDbEntity
  8
0
100
AcDbLine
 10
19.23172353988969
 20
8.738258907081342
 30
0.0
 11
19.68416118619582
 21
9.190696553387477
 31
0.0
  0
LINE
  5
4E5
330
1F
100
AcDbEntity
  8
0
100
AcDbLine
 10
20.31254130155549
 20
9.819076668747144
 30
0.0
 11
21.46644650174814
 21
10.97298186893979
 31
0.0
  0
LINE
  5
4E6
330
1F
100
AcDbEntity
  8
0
100
AcDbLine
 10
25.70195353343657
 20
15.20848890062822
 30
0.0
 11
26.17612383431621
 21
15.68265920150786
 31
0.0
  0
LINE
  5
4E7
330
1F
100
AcDbEntity
  8
0
100
AcDbLine
 10
19.18632365059957
 20
8.767812336596993
 30
0.0
 11
19.63786189037805
 21
9.219350576375474
 31
0.0
  0
LINE
  5
4E8
330
1F
100
AcDbEntity
  8
0
100
AcDbLine
 10
20.23758798274972
 20
9.819076668747144
 30
0.0
 11
21.39149318294236
 21
10.97298186893979
 31
0.0
  0
LINE
  5
4E9
330
1F
100
AcDbEntity
  8
0
100
AcDbLine
 10
25.67387805114043
 20
15.25536673713786
 30
0.0
 11
26.14614806671247
 21
15.7276367527099
 31
0.0
  0
LINE
  5
4EA
330
1F
100
AcDbEntity
  8
0
100
AcDbLine
 10
19.14135480524107
 20
8.797796810044272
 30
0.0
 11
19.59221285804125
 21
9.24865486284445
 31
0.0
  0
LINE
  5
4EB
330
1F
100
AcDbEntity
  8
0
100
AcDbLine
 10
20.16263466394394
 20
9.819076668747146
 30
0.0
 11
21.31653986413659
 21
10.97298186893979
 31
0.0
  0
LINE
  5
4EC
330
1F
100
AcDbEntity
  8
0
100
AcDbLine
 10
25.6454104540877
 20
15.3018524588909
 30
0.0
 11
26.11573206431661
 21
15.77217406911981
 31
0.0
  0
LINE
  5
4ED
330
1F
100
AcDbEntity
  8
0
100
AcDbLine
 10
19.09674981369256
 20
8.828145137301536
 30
0.0
 11
19.54689301148289
 21
9.278288335091862
 31
0.0
  0
LINE
  5
4EE
330
1F
100
AcDbEntity
  8
0
100
AcDbLine
 10
20.08768134513817
 20
9.819076668747144
 30
0.0
 11
21.24158654533082
 21
10.97298186893979
 31
0.0
  0
LINE
  5
4EF
330
1F
100
AcDbEntity
  8
0
100
AcDbLine
 10
25.61652787820541
 20
15.34792320181439
 30
0.0
 11
26.08487697518673
 21
15.81627229879571
 31
0.0
  0
LINE
  5
4F0
330
1F
100
AcDbEntity
  8
0
100
AcDbLine
 10
19.05245737067462
 20
8.858806013089373
 30
0.0
 11
19.50208172959055
 21
9.308430372005295
 31
0.0
  0
LINE
  5
4F1
330
1F
100
AcDbEntity
  8
0
100
AcDbLine
 10
20.01272802633239
 20
9.819076668747144
 30
0.0
 11
21.16663322652504
 21
10.97298186893979
 31
0.0
  0
LINE
  5
4F2
330
1F
100
AcDbEntity
  8
0
100
AcDbLine
 10
25.58716958810439
 20
15.39351823051914
 30
0.0
 11
26.05360107973948
 21
15.85994972215423
 31
0.0
  0
LINE
  5
4F3
330
1F
100
AcDbEntity
  8
0
100
AcDbLine
 10
19.00852148913059
 20
8.889823450351114
 30
0.0
 11
19.45771404574158
 21
9.339016006962103
 31
0.0
  0
LINE
  5
4F4
330
1F
100
AcDbEntity
  8
0
100
AcDbLine
 10
19.93777470752662
 20
9.819076668747146
 30
0.0
 11
21.09167990771927
 21
10.97298186893979
 31
0.0
  0
LINE
  5
4F5
330
1F
100
AcDbEntity
  8
0
100
AcDbLine
 10
23.20271232940193
 20
13.08401429062245
 30
0.0
 11
23.80676280186946
 21
13.68806476308998
 31
0.0
  0
LINE
  5
4F6
330
1F
100
AcDbEntity
  8
0
100
AcDbLine
 10
25.55727195022506
 20
15.43857391144559
 30
0.0
 11
26.02187778905068
 21
15.9031797502712
 31
0.0
  0
LINE
  5
4F7
330
1F
100
AcDbEntity
  8
0
100
AcDbLine
 10
18.96491692806303
 20
8.921172208089322
 30
0.0
 11
19.41380772669054
 21
9.370063006716832
 31
0.0
  0
LINE
  5
4F8
330
1F
100
AcDbEntity
  8
0
100
AcDbLine
 10
19.86282138872085
 20
9.819076668747144
 30
0.0
 11
21.01672658891349
 21
10.97298186893979
 31
0.0
  0
LINE
  5
4F9
330
1F
100
AcDbEntity
  8
0
100
AcDbLine
 10
22.82461220559854
 20
12.78086748562483
 30
0.0
 11
23.92537475041235
 21
13.88163003043864
 31
0.0
  0
LINE
  5
4FA
330
1F
100
AcDbEntity
  8
0
100
AcDbLine
 10
25.52678461729239
 20
15.48303989731868
 30
0.0
 11
25.98978406225066
 21
15.94603934227696
 31
0.0
  0
LINE
  5
4FB
330
1F
100
AcDbEntity
  8
0
100
AcDbLine
 10
18.92165973616025
 20
8.952868334992324
 30
0.0
 11
19.37034464314907
 21
9.40155324198114
 31
0.0
  0
LINE
  5
4FC
330
1F
100
AcDbEntity
  8
0
100
AcDbLine
 10
19.78786806991507
 20
9.819076668747144
 30
0.0
 11
20.94177327010772
 21
10.97298186893979
 31
0.0
  0
LINE
  5
4FD
330
1F
100
AcDbEntity
  8
0
100
AcDbLine
 10
22.50670170330702
 20
12.53791030213909
 30
0.0
 11
24.00171207992183
 21
14.0329206787539
 31
0.0
  0
LINE
  5
4FE
330
1F
100
AcDbEntity
  8
0
100
AcDbLine
 10
25.49574057254058
 20
15.52694917137264
 30
0.0
 11
25.95735364206877
 21
15.98856224090084
 31
0.0
  0
LINE
  5
4FF
330
1F
100
AcDbEntity
  8
0
100
AcDbLine
 10
18.87876624021284
 20
8.984928157850687
 30
0.0
 11
19.32733290097939
 21
9.433494818617229
 31
0.0
  0
LINE
  5
500
330
1F
100
AcDbEntity
  8
0
100
AcDbLine
 10
19.7129147511093
 20
9.819076668747146
 30
0.0
 11
20.86681995130195
 21
10.97298186893979
 31
0.0
  0
LINE
  5
501
330
1F
100
AcDbEntity
  8
0
100
AcDbLine
 10
22.2147084256204
 20
12.32087034325824
 30
0.0
 11
24.05415193767568
 21
14.16031385531352
 31
0.0
  0
LINE
  5
502
330
1F
100
AcDbEntity
  8
0
100
AcDbLine
 10
25.46418962280779
 20
15.57035154044564
 30
0.0
 11
25.92459124691398
 21
16.03075316455183
 31
0.0
  0
LINE
  5
503
330
1F
100
AcDbEntity
  8
0
100
AcDbLine
 10
18.83624472867616
 20
9.01735996511978
 30
0.0
 11
19.28478074830952
 21
9.465895984753136
 31
0.0
  0
LINE
  5
504
330
1F
100
AcDbEntity
  8
0
100
AcDbLine
 10
19.63796143230353
 20
9.819076668747142
 30
0.0
 11
20.88539330777303
 21
11.06650854421665
 31
0.0
  0
LINE
  5
505
330
1F
100
AcDbEntity
  8
0
100
AcDbLine
 10
21.89746039871079
 20
12.0785756351544
 30
0.0
 11
24.09275250374854
 21
14.27386774019216
 31
0.0
  0
LINE
  5
506
330
1F
100
AcDbEntity
  8
0
100
AcDbLine
 10
25.43218213457715
 20
15.61329737102077
 30
0.0
 11
25.89148977019893
 21
16.07260500664254
 31
0.0
  0
LINE
  5
507
330
1F
100
AcDbEntity
  8
0
100
AcDbLine
 10
18.79410606595518
 20
9.050174621204567
 30
0.0
 11
19.24271404210499
 21
9.498782597354376
 31
0.0
  0
LINE
  5
508
330
1F
100
AcDbEntity
  8
0
100
AcDbLine
 10
19.56300811349776
 20
9.819076668747144
 30
0.0
 11
21.08348365815012
 21
11.33955221339951
 31
0.0
  0
LINE
  5
509
330
1F
100
AcDbEntity
  8
0
100
AcDbLine
 10
21.43718092402647
 20
11.69324947927586
 30
0.0
 11
24.12204761073444
 21
14.37811616598383
 31
0.0
  0
LINE
  5
50A
330
1F
100
AcDbEntity
  8
0
100
AcDbLine
 10
25.39975971403044
 20
15.65582826927984
 30
0.0
 11
25.85804025472231
 21
16.1141088099717
 31
0.0
  0
LINE
  5
50B
330
1F
100
AcDbEntity
  8
0
100
AcDbLine
 10
18.75235939378475
 20
9.083381267839918
 30
0.0
 11
19.20120028165159
 21
9.532222155706759
 31
0.0
  0
LINE
  5
50C
330
1F
100
AcDbEntity
  8
0
100
AcDbLine
 10
19.51346112761141
 20
9.844483001666571
 30
0.0
 11
24.14471653555454
 21
14.4757384096097
 31
0.0
  0
LINE
  5
50D
330
1F
100
AcDbEntity
  8
0
100
AcDbLine
 10
25.36694241943107
 20
15.69796429348624
 30
0.0
 11
25.82423075346337
 21
16.15525262751853
 31
0.0
  0
LINE
  5
50E
330
1F
100
AcDbEntity
  8
0
100
AcDbLine
 10
18.7110690347101
 20
9.117044227571032
 30
0.0
 11
19.16017745038614
 21
9.566152643247072
 31
0.0
  0
LINE
  5
50F
330
1F
100
AcDbEntity
  8
0
100
AcDbLine
 10
19.5134611276092
 20
9.919436320470142
 30
0.0
 11
24.16169549943682
 21
14.56767069229775
 31
0.0
  0
LINE
  5
510
330
1F
100
AcDbEntity
  8
0
100
AcDbLine
 10
25.33373929239977
 20
15.7397144852607
 30
0.0
 11
25.78998718795293
 21
16.19596238081387
 31
0.0
  0
LINE
  5
511
330
1F
100
AcDbEntity
  8
0
100
AcDbLine
 10
18.6701822788772
 20
9.151110790543909
 30
0.0
 11
19.11964936249729
 21
9.600577874164
 31
0.0
  0
LINE
  5
512
330
1F
100
AcDbEntity
  8
0
100
AcDbLine
 10
19.513461127607
 20
9.994389639273713
 30
0.0
 11
24.17361485240239
 21
14.6545433640691
 31
0.0
  0
LINE
  5
513
330
1F
100
AcDbEntity
  8
0
100
AcDbLine
 10
25.30015861265982
 20
15.78108712432653
 30
0.0
 11
25.75536323875027
 21
16.23629175041698
 31
0.0
  0
LINE
  5
514
330
1F
100
AcDbEntity
  8
0
100
AcDbLine
 10
18.62975296974027
 20
9.185634800212751
 30
0.0
 11
19.07956685017842
 21
9.635448680650908
 31
0.0
  0
LINE
  5
515
330
1F
100
AcDbEntity
  8
0
100
AcDbLine
 10
19.5134611276048
 20
10.06934295807728
 30
0.0
 11
24.18102491443171
 21
14.73690674490419
 31
0.0
  0
LINE
  5
516
330
1F
100
AcDbEntity
  8
0
100
AcDbLine
 10
25.26622622179615
 20
15.82210805226863
 30
0.0
 11
25.72035220159756
 21
16.27623403207004
 31
0.0
  0
LINE
  5
517
330
1F
100
AcDbEntity
  8
0
100
AcDbLine
 10
18.58973895447589
 20
9.220574103754151
 30
0.0
 11
19.03988506365946
 21
9.670720212937715
 31
0.0
  0
LINE
  5
518
330
1F
100
AcDbEntity
  8
0
100
AcDbLine
 10
19.5134611276026
 20
10.14429627688086
 30
0.0
 11
24.18506581223012
 21
14.81590096150838
 31
0.0
  0
LINE
  5
519
330
1F
100
AcDbEntity
  8
0
100
AcDbLine
 10
25.23184173339803
 20
15.86267688267629
 30
0.0
 11
25.68494470037256
 21
16.31577984965082
 31
0.0
  0
LINE
  5
51A
330
1F
100
AcDbEntity
  8
0
100
AcDbLine
 10
18.55014421625302
 20
9.255932684337052
 30
0.0
 11
19.00055033482962
 21
9.70633880291365
 31
0.0
  0
LINE
  5
51B
330
1F
100
AcDbEntity
  8
0
100
AcDbLine
 10
19.5134611276004
 20
10.21924959568443
 30
0.0
 11
24.18746180094256
 21
14.89325026902659
 31
0.0
  0
LINE
  5
51C
330
1F
100
AcDbEntity
  8
0
100
AcDbLine
 10
25.19702861901896
 20
15.90281708710299
 30
0.0
 11
25.64908494220363
 21
16.35487341028766
 31
0.0
  0
LINE
  5
51D
330
1F
100
AcDbEntity
  8
0
100
AcDbLine
 10
18.51102574506958
 20
9.29176753195939
 30
0.0
 11
18.96154984048113
 21
9.742291627370937
 31
0.0
  0
LINE
  5
51E
330
1F
100
AcDbEntity
  8
0
100
AcDbLine
 10
19.51346112759819
 20
10.294202914488
 30
0.0
 11
24.18570920307596
 21
14.96645098996576
 31
0.0
  0
LINE
  5
51F
330
1F
100
AcDbEntity
  8
0
100
AcDbLine
 10
25.16162465032709
 20
15.9423664372169
 30
0.0
 11
25.61281939046302
 21
16.39356117735282
 31
0.0
  0
LINE
  5
520
330
1F
100
AcDbEntity
  8
0
100
AcDbLine
 10
18.47232516890181
 20
9.32802027459739
 30
0.0
 11
18.92277216333988
 21
9.778467269035461
 31
0.0
  0
LINE
  5
521
330
1F
100
AcDbEntity
  8
0
100
AcDbLine
 10
19.51346112759599
 20
10.36915623329157
 30
0.0
 11
24.18252034216733
 21
15.03821544786291
 31
0.0
  0
LINE
  5
522
330
1F
100
AcDbEntity
  8
0
100
AcDbLine
 10
25.12568799380977
 20
15.98138309950535
 30
0.0
 11
25.57623568774038
 21
16.43193079343596
 31
0.0
  0
LINE
  5
523
330
1F
100
AcDbEntity
  8
0
100
AcDbLine
 10
18.43395063897502
 20
9.364599063476374
 30
0.0
 11
18.88414776512047
 21
9.81479618962182
 31
0.0
  0
LINE
  5
524
330
1F
100
AcDbEntity
  8
0
100
AcDbLine
 10
19.51346112759379
 20
10.44410955209514
 30
0.0
 11
24.17761472407033
 21
15.10826314857169
 31
0.0
  0
LINE
  5
525
330
1F
100
AcDbEntity
  8
0
100
AcDbLine
 10
25.0892125620348
 20
16.01986098653616
 30
0.0
 11
25.53941408083366
 21
16.47006250533501
 31
0.0
  0
LINE
  5
526
330
1F
100
AcDbEntity
  8
0
100
AcDbLine
 10
18.39581866374788
 20
9.401420407055006
 30
0.0
 11
18.84562439582015
 21
9.851226139127279
 31
0.0
  0
LINE
  5
527
330
1F
100
AcDbEntity
  8
0
100
AcDbLine
 10
19.51346112759159
 20
10.51906287089872
 30
0.0
 11
24.17030947802411
 21
15.17591122133124
 31
0.0
  0
LINE
  5
528
330
1F
100
AcDbEntity
  8
0
100
AcDbLine
 10
25.05235458216692
 20
16.05795632547404
 30
0.0
 11
25.50243244679034
 21
16.50803419009746
 31
0.0
  0
LINE
  5
529
330
1F
100
AcDbEntity
  8
0
100
AcDbLine
 10
18.35785317794909
 20
9.438408240061985
 30
0.0
 11
18.80751306686131
 21
9.888068128974215
 31
0.0
  0
LINE
  5
52A
330
1F
100
AcDbEntity
  8
0
100
AcDbLine
 10
19.51346112758939
 20
10.59401618970229
 30
0.0
 11
24.16087787270325
 21
15.24143293481615
 31
0.0
  0
LINE
  5
52B
330
1F
100
AcDbEntity
  8
0
100
AcDbLine
 10
25.01526810393291
 20
16.09582316604581
 30
0.0
 11
25.46520346282967
 21
16.54575852494256
 31
0.0
  0
LINE
  5
52C
330
1F
100
AcDbEntity
  8
0
100
AcDbLine
 10
18.32021968581514
 20
9.47572806673381
 30
0.0
 11
18.77060023322167
 21
9.926108614140349
 31
0.0
  0
LINE
  5
52D
330
1F
100
AcDbEntity
  8
0
100
AcDbLine
 10
19.51346112758719
 20
10.66896950850586
 30
0.0
 11
24.14935404001542
 21
15.30486242093409
 31
0.0
  0
LINE
  5
52E
330
1F
100
AcDbEntity
  8
0
100
AcDbLine
 10
24.97779487924141
 20
16.13330326016008
 30
0.0
 11
25.42732290591445
 21
16.58283128683312
 31
0.0
  0
LINE
  5
52F
330
1F
100
AcDbEntity
  8
0
100
AcDbLine
 10
18.28320458308049
 20
9.513666282804934
 30
0.0
 11
18.73385316312683
 21
9.964314862851277
 31
0.0
  0
LINE
  5
530
330
1F
100
AcDbEntity
  8
0
100
AcDbLine
 10
19.51346112758499
 20
10.74392282730943
 30
0.0
 11
24.13609504743068
 21
15.36655674715512
 31
0.0
  0
LINE
  5
531
330
1F
100
AcDbEntity
  8
0
100
AcDbLine
 10
24.93972741807637
 20
16.17018911780081
 30
0.0
 11
25.38931840512015
 21
16.61978010484459
 31
0.0
  0
LINE
  5
532
330
1F
100
AcDbEntity
  8
0
100
AcDbLine
 10
18.24630196779819
 20
9.55171698632841
 30
0.0
 11
18.69739912381748
 21
10.0028141423477
 31
0.0
  0
LINE
  5
533
330
1F
100
AcDbEntity
  8
0
100
AcDbLine
 10
19.51412228177897
 20
10.81953730030919
 30
0.0
 11
24.12096975338567
 21
15.42638477191589
 31
0.0
  0
LINE
  5
534
330
1F
100
AcDbEntity
  8
0
100
AcDbLine
 10
24.90150536121584
 20
16.20692037974606
 30
0.0
 11
25.35109429888216
 21
16.65650931741238
 31
0.0
  0
LINE
  5
535
330
1F
100
AcDbEntity
  8
0
100
AcDbLine
 10
18.20961552186287
 20
9.589983859198863
 30
0.0
 11
18.66140354813069
 21
10.04177188546668
 31
0.0
  0
LINE
  5
536
330
1F
100
AcDbEntity
  8
0
100
AcDbLine
 10
19.57377392875141
 20
10.9541422660874
 30
0.0
 11
24.10428424835519
 21
15.48465258569118
 31
0.0
  0
LINE
  5
537
330
1F
100
AcDbEntity
  8
0
100
AcDbLine
 10
24.86303220194185
 20
16.24340053927785
 30
0.0
 11
25.31249032536828
 21
16.69285866270427
 31
0.0
  0
LINE
  5
538
330
1F
100
AcDbEntity
  8
0
100
AcDbLine
 10
18.17324800507743
 20
9.628569661219199
 30
0.0
 11
18.62596990917699
 21
10.08129156531876
 31
0.0
  0
LINE
  5
539
330
1F
100
AcDbEntity
  8
0
100
AcDbLine
 10
19.6439020272012
 20
11.09922368334296
 30
0.0
 11
22.31352345536817
 21
13.76884511150994
 31
0.0
  0
LINE
  5
53A
330
1F
100
AcDbEntity
  8
0
100
AcDbLine
 10
22.68851557526814
 20
14.14383723140991
 30
0.0
 11
24.08610079195033
 21
15.54142244809209
 31
0.0
  0
LINE
  5
53B
330
1F
100
AcDbEntity
  8
0
100
AcDbLine
 10
24.82421121346247
 20
16.27953286960424
 30
0.0
 11
25.27345294030089
 21
16.72877459644265
 31
0.0
  0
LINE
  5
53C
330
1F
100
AcDbEntity
  8
0
100
AcDbLine
 10
18.13725724264989
 20
9.667532217597428
 30
0.0
 11
18.59103931114392
 21
10.12131428609146
 31
0.0
  0
LINE
  5
53D
330
1F
100
AcDbEntity
  8
0
100
AcDbLine
 10
19.73799572213212
 20
11.26827069707966
 30
0.0
 11
21.75840922862867
 21
13.28868420357621
 31
0.0
  0
LINE
  5
53E
330
1F
100
AcDbEntity
  8
0
100
AcDbLine
 10
22.81771006949801
 20
14.34798504444555
 30
0.0
 11
24.0665069859523
 21
15.59678196089984
 31
0.0
  0
LINE
  5
53F
330
1F
100
AcDbEntity
  8
0
100
AcDbLine
 10
24.78490760806855
 20
16.31518258301609
 30
0.0
 11
25.23394464991579
 21
16.76421962486333
 31
0.0
  0
LINE
  5
540
330
1F
100
AcDbEntity
  8
0
100
AcDbLine
 10
18.10168630326122
 20
9.706914597014539
 30
0.0
 11
18.5565675430269
 21
10.16179583678021
 31
0.0
  0
LINE
  5
541
330
1F
100
AcDbEntity
  8
0
100
AcDbLine
 10
19.8629132302895
 20
11.46814152404282
 30
0.0
 11
21.35827189108545
 21
12.96350018483876
 31
0.0
  0
LINE
  5
542
330
1F
100
AcDbEntity
  8
0
100
AcDbLine
 10
22.87306585676024
 20
14.47829415051356
 30
0.0
 11
24.04559961085761
 21
15.65082790461093
 31
0.0
  0
LINE
  5
543
330
1F
100
AcDbEntity
  8
0
100
AcDbLine
 10
24.74517936876514
 20
16.35040766251845
 30
0.0
 11
25.19399078541259
 21
16.7992190791659
 31
0.0
  0
LINE
  5
544
330
1F
100
AcDbEntity
  8
0
100
AcDbLine
 10
18.06657665596418
 20
9.746758268523271
 30
0.0
 11
18.52251038251034
 21
10.20269199506943
 31
0.0
  0
LINE
  5
545
330
1F
100
AcDbEntity
  8
0
100
AcDbLine
 10
20.05886052931294
 20
11.73904214187202
 30
0.0
 11
20.99420238476291
 21
12.674383997322
 31
0.0
  0
LINE
  5
546
330
1F
100
AcDbEntity
  8
0
100
AcDbLine
 10
22.90481419142995
 20
14.58499580398904
 30
0.0
 11
24.02345675529606
 21
15.70363836785515
 31
0.0
  0
LINE
  5
547
330
1F
100
AcDbEntity
  8
0
100
AcDbLine
 10
24.70493686363564
 20
16.38511847619473
 30
0.0
 11
25.15355991004635
 21
16.83374152260543
 31
0.0
  0
LINE
  5
548
330
1F
100
AcDbEntity
  8
0
100
AcDbLine
 10
18.03192779146118
 20
9.787062722826043
 30
0.0
 11
18.48886797237727
 21
10.24400290374214
 31
0.0
  0
LINE
  5
549
330
1F
100
AcDbEntity
  8
0
100
AcDbLine
 10
22.92415727069056
 20
14.67929220205543
 30
0.0
 11
24.00008057517519
 21
15.75521550654005
 31
0.0
  0
LINE
  5
54A
330
1F
100
AcDbEntity
  8
0
100
AcDbLine
 10
24.66425964577789
 20
16.41939457714275
 30
0.0
 11
25.11275977154058
 21
16.86789470290544
 31
0.0
  0
LINE
  5
54B
330
1F
100
AcDbEntity
  8
0
100
AcDbLine
 10
17.99770463483577
 20
9.827792885006403
 30
0.0
 11
18.45563348667213
 21
10.28572173684277
 31
0.0
  0
LINE
  5
54C
330
1F
100
AcDbEntity
  8
0
100
AcDbLine
 10
22.93576864610634
 20
14.76585689627697
 30
0.0
 11
23.97557892011508
 21
15.80566717028571
 31
0.0
  0
LINE
  5
54D
330
1F
100
AcDbEntity
  8
0
100
AcDbLine
 10
24.62309083328952
 20
16.45317908346016
 30
0.0
 11
25.07157823091233
 21
16.90166648108297
 31
0.0
  0
LINE
  5
54E
330
1F
100
AcDbEntity
  8
0
100
AcDbLine
 10
17.96396584225673
 20
9.869007411233143
 30
0.0
 11
18.42284235803709
 21
10.3278839270135
 31
0.0
  0
LINE
  5
54F
330
1F
100
AcDbEntity
  8
0
100
AcDbLine
 10
22.94054362272911
 20
14.84558519170552
 30
0.0
 11
23.94995226306554
 21
15.85499383204195
 31
0.0
  0
LINE
  5
550
330
1F
100
AcDbEntity
  8
0
100
AcDbLine
 10
24.58147938421845
 20
16.48652095319486
 30
0.0
 11
25.03008134368485
 21
16.93512291266125
 31
0.0
  0
LINE
  5
551
330
1F
100
AcDbEntity
  8
0
100
AcDbLine
 10
17.93061353711849
 20
9.910608424900667
 30
0.0
 11
18.39052995772082
 21
10.370524845503
 31
0.0
  0
LINE
  5
552
330
1F
100
AcDbEntity
  8
0
100
AcDbLine
 10
22.94182765809422
 20
14.9218225458764
 30
0.0
 11
23.92319884733428
 21
15.90319373511646
 31
0.0
  0
LINE
  5
553
330
1F
100
AcDbEntity
  8
0
100
AcDbLine
 10
24.53943496588134
 20
16.51942985366352
 30
0.0
 11
24.98823200452466
 21
16.96822689230684
 31
0.0
  0
LINE
  5
554
330
1F
100
AcDbEntity
  8
0
100
AcDbLine
 10
17.89764320696854
 20
9.952591413556501
 30
0.0
 11
18.35872408699298
 21
10.41367229358094
 31
0.0
  0
LINE
  5
555
330
1F
100
AcDbEntity
  8
0
100
AcDbLine
 10
22.93950368482058
 20
14.99445189140854
 30
0.0
 11
23.89535499350162
 21
15.95030320008957
 31
0.0
  0
LINE
  5
556
330
1F
100
AcDbEntity
  8
0
100
AcDbLine
 10
24.49697670208291
 20
16.55192490867086
 30
0.0
 11
24.94601431879383
 21
17.00096252538179
 31
0.0
  0
LINE
  5
557
330
1F
100
AcDbEntity
  8
0
100
AcDbLine
 10
17.86502608214883
 20
9.994927607542563
 30
0.0
 11
18.32742344836046
 21
10.45732497375418
 31
0.0
  0
LINE
  5
558
330
1F
100
AcDbEntity
  8
0
100
AcDbLine
 10
22.93280163194876
 20
15.06270315734248
 30
0.0
 11
23.86647135805844
 21
15.99637288345217
 31
0.0
  0
LINE
  5
559
330
1F
100
AcDbEntity
  8
0
100
AcDbLine
 10
24.45411759794115
 20
16.58401912333488
 30
0.0
 11
24.90337638877888
 21
17.03327791417261
 31
0.0
  0
LINE
  5
55A
330
1F
100
AcDbEntity
  8
0
100
AcDbLine
 10
17.83273393332622
 20
10.03758877752572
 30
0.0
 11
18.29661706000999
 21
10.50147190420949
 31
0.0
  0
LINE
  5
55B
330
1F
100
AcDbEntity
  8
0
100
AcDbLine
 10
22.92210246967255
 20
15.12695731387205
 30
0.0
 11
23.83660970656694
 21
16.04146455076644
 31
0.0
  0
LINE
  5
55C
330
1F
100
AcDbEntity
  8
0
100
AcDbLine
 10
24.41083618719897
 20
16.61569103139847
 30
0.0
 11
24.86029001161969
 21
17.06514485581919
 31
0.0
  0
LINE
  5
55D
330
1F
100
AcDbEntity
  8
0
100
AcDbLine
 10
17.80076888696345
 20
10.08057704996873
 30
0.0
 11
18.26629368922227
 21
10.54610185222755
 31
0.0
  0
LINE
  5
55E
330
1F
100
AcDbEntity
  8
0
100
AcDbLine
 10
22.90906328351952
 20
15.1888714465248
 30
0.0
 11
23.8058553759631
 21
16.08566353896838
 31
0.0
  0
LINE
  5
55F
330
1F
100
AcDbEntity
  8
0
100
AcDbLine
 10
24.36709778412806
 20
16.64690594713333
 30
0.0
 11
24.81678994537526
 21
17.09659810838053
 31
0.0
  0
LINE
  5
560
330
1F
100
AcDbEntity
  8
0
100
AcDbLine
 10
17.76915770830116
 20
10.12391919011221
 30
0.0
 11
18.23644605161347
 21
10.59120753342452
 31
0.0
  0
LINE
  5
561
330
1F
100
AcDbEntity
  8
0
100
AcDbLine
 10
22.89329597061444
 20
15.24805745242548
 30
0.0
 11
23.77418955772103
 21
16.12895103953208
 31
0.0
  0
LINE
  5
562
330
1F
100
AcDbEntity
  8
0
100
AcDbLine
 10
24.32286438505543
 20
16.67762586686648
 30
0.0
 11
24.77287107620584
 21
17.12763255801689
 31
0.0
  0
LINE
  5
563
330
1F
100
AcDbEntity
  8
0
100
AcDbLine
 10
17.73789702186674
 20
10.16761182248357
 30
0.0
 11
18.20709264560402
 21
10.63680744622084
 31
0.0
  0
LINE
  5
564
330
1F
100
AcDbEntity
  8
0
100
AcDbLine
 10
22.87450951917919
 20
15.30422431979602
 30
0.0
 11
23.74165288160507
 21
16.17136768222189
 31
0.0
  0
LINE
  5
565
330
1F
100
AcDbEntity
  8
0
100
AcDbLine
 10
24.27810596249473
 20
16.70782076311156
 30
0.0
 11
24.72852791911034
 21
17.15824271972717
 31
0.0
  0
LINE
  5
566
330
1F
100
AcDbEntity
  8
0
100
AcDbLine
 10
17.70701280165858
 20
10.21168092108118
 30
0.0
 11
18.17823747396474
 21
10.68290559338734
 31
0.0
  0
LINE
  5
567
330
1F
100
AcDbEntity
  8
0
100
AcDbLine
 10
22.85317814026574
 20
15.35784625968834
 30
0.0
 11
23.70811939845393
 21
16.21278751787653
 31
0.0
  0
LINE
  5
568
330
1F
100
AcDbEntity
  8
0
100
AcDbLine
 10
24.23281701441988
 20
16.73748513384248
 30
0.0
 11
24.683756354104
 21
17.1884244735266
 31
0.0
  0
LINE
  5
569
330
1F
100
AcDbEntity
  8
0
100
AcDbLine
 10
17.67653123311358
 20
10.25615267134195
 30
0.0
 11
18.14989450844735
 21
10.72951594667572
 31
0.0
  0
LINE
  5
56A
330
1F
100
AcDbEntity
  8
0
100
AcDbLine
 10
22.8296510498448
 20
15.40927248807317
 30
0.0
 11
23.6736785493223
 21
16.25329998755067
 31
0.0
  0
LINE
  5
56B
330
1F
100
AcDbEntity
  8
0
100
AcDbLine
 10
24.18701132712883
 20
16.7666327653572
 30
0.0
 11
24.63854879007665
 21
17.21817022830502
 31
0.0
  0
LINE
  5
56C
330
1F
100
AcDbEntity
  8
0
100
AcDbLine
 10
17.64648167067099
 20
10.30105642770514
 30
0.0
 11
18.12208015034676
 21
10.7766549073809
 31
0.0
  0
LINE
  5
56D
330
1F
100
AcDbEntity
  8
0
100
AcDbLine
 10
22.80397272183579
 20
15.45854747886994
 30
0.0
 11
23.6384325329172
 21
16.29300728995135
 31
0.0
  0
LINE
  5
56E
330
1F
100
AcDbEntity
  8
0
100
AcDbLine
 10
24.14070439504202
 20
16.79527915207616
 30
0.0
 11
24.59290897499798
 21
17.24748373203212
 31
0.0
  0
LINE
  5
56F
330
1F
100
AcDbEntity
  8
0
100
AcDbLine
 10
17.61689300009223
 20
10.34642107593215
 30
0.0
 11
18.09481895673139
 21
10.82434703257131
 31
0.0
  0
LINE
  5
570
330
1F
100
AcDbEntity
  8
0
100
AcDbLine
 10
22.77615982385911
 20
15.50568789969903
 30
0.0
 11
23.60255995311732
 21
16.33208802895724
 31
0.0
  0
LINE
  5
571
330
1F
100
AcDbEntity
  8
0
100
AcDbLine
 10
24.0939102415934
 20
16.82343831743332
 30
0.0
 11
24.54681787988731
 21
17.27634595572723
 31
0.0
  0
LINE
  5
572
330
1F
100
AcDbEntity
  8
0
100
AcDbLine
 10
17.58779585944336
 20
10.39227725408905
 30
0.0
 11
18.06813760924256
 21
10.87261900388825
 31
0.0
  0
LINE
  5
573
330
1F
100
AcDbEntity
  8
0
100
AcDbLine
 10
22.74626689503417
 20
15.55074828967986
 30
0.0
 11
23.56626610269879
 21
16.37074749734448
 31
0.0
  0
LINE
  5
574
330
1F
100
AcDbEntity
  8
0
100
AcDbLine
 10
24.04661890367181
 20
16.8511002983175
 30
0.0
 11
24.50026622472019
 21
17.30474761936588
 31
0.0
  0
LINE
  5
575
330
1F
100
AcDbEntity
  8
0
100
AcDbLine
 10
17.55922167570576
 20
10.43865638915722
 30
0.0
 11
18.04206105097154
 21
10.92149576442301
 31
0.0
  0
LINE
  5
576
330
1F
100
AcDbEntity
  8
0
100
AcDbLine
 10
22.71431227497855
 20
15.59374698843001
 30
0.0
 11
23.52962882963554
 21
16.40906354308701
 31
0.0
  0
LINE
  5
577
330
1F
100
AcDbEntity
  8
0
100
AcDbLine
 10
23.99881433634011
 20
16.87824904979157
 30
0.0
 11
24.45329090771747
 21
17.33272562116894
 31
0.0
  0
LINE
  5
578
330
1F
100
AcDbEntity
  8
0
100
AcDbLine
 10
17.53124204472013
 20
10.48563007697737
 30
0.0
 11
18.01659508706623
 21
10.97098311932347
 31
0.0
  0
LINE
  5
579
330
1F
100
AcDbEntity
  8
0
100
AcDbLine
 10
22.68039859396061
 20
15.63478662621785
 30
0.0
 11
23.49081082172825
 21
16.44519885398548
 31
0.0
  0
LINE
  5
57A
330
1F
100
AcDbEntity
  8
0
100
AcDbLine
 10
23.9504780346633
 20
16.90486606692054
 30
0.0
 11
24.40587787673381
 21
17.36026590899105
 31
0.0
  0
LINE
  5
57B
330
1F
100
AcDbEntity
  8
0
100
AcDbLine
 10
17.50380136451087
 20
10.53314271557389
 30
0.0
 11
17.99170744999289
 21
11.0210488010559
 31
0.0
  0
LINE
  5
57C
330
1F
100
AcDbEntity
  8
0
100
AcDbLine
 10
22.64494018160284
 20
15.67428153266585
 30
0.0
 11
23.45163178629453
 21
16.48097313735754
 31
0.0
  0
LINE
  5
57D
330
1F
100
AcDbEntity
  8
0
100
AcDbLine
 10
23.90159236968852
 20
16.93093372075153
 30
0.0
 11
24.35800920195437
 21
17.38735055301738
 31
0.0
  0
LINE
  5
57E
330
1F
100
AcDbEntity
  8
0
100
AcDbLine
 10
17.47684413452921
 20
10.58113880439799
 30
0.0
 11
17.96735804046553
 21
11.07165271033432
 31
0.0
  0
LINE
  5
57F
330
1F
100
AcDbEntity
  8
0
100
AcDbLine
 10
22.60859380842108
 20
15.71288847828986
 30
0.0
 11
23.41171772520334
 21
16.51601239507213
 31
0.0
  0
LINE
  5
580
330
1F
100
AcDbEntity
  8
0
100
AcDbLine
 10
23.85213617701733
 20
16.95643084688612
 30
0.0
 11
24.30966528657879
 21
17.41395995644758
 31
0.0
  0
LINE
  5
581
330
1F
100
AcDbEntity
  8
0
100
AcDbLine
 10
17.45033358685986
 20
10.62958157553442
 30
0.0
 11
17.9435137618387
 21
11.12276175051326
 31
0.0
  0
LINE
  5
582
330
1F
100
AcDbEntity
  8
0
100
AcDbLine
 10
22.56897945007277
 20
15.74822743874733
 30
0.0
 11
23.37072575025781
 21
16.54997373893237
 31
0.0
  0
LINE
  5
583
330
1F
100
AcDbEntity
  8
0
100
AcDbLine
 10
23.80211863600123
 20
16.98136662467579
 30
0.0
 11
24.26082904431133
 21
17.44007703298589
 31
0.0
  0
LINE
  5
584
330
1F
100
AcDbEntity
  8
0
100
AcDbLine
 10
17.42423976735914
 20
10.67844107483947
 30
0.0
 11
17.92018790365105
 21
11.17438921113138
 31
0.0
  0
LINE
  5
585
330
1F
100
AcDbEntity
  8
0
100
AcDbLine
 10
22.52609406400044
 20
15.78029537148078
 30
0.0
 11
23.32843866313798
 21
16.58263997061831
 31
0.0
  0
LINE
  5
586
330
1F
100
AcDbEntity
  8
0
100
AcDbLine
 10
23.75154487860463
 20
17.00574618608496
 30
0.0
 11
24.21149003534356
 21
17.46569134282389
 31
0.0
  0
LINE
  5
587
330
1F
100
AcDbEntity
  8
0
100
AcDbLine
 10
17.39856614055012
 20
10.72772076683623
 30
0.0
 11
17.89744152916704
 21
11.22659615545315
 31
0.0
  0
LINE
  5
588
330
1F
100
AcDbEntity
  8
0
100
AcDbLine
 10
22.47905973399687
 20
15.80821436028298
 30
0.0
 11
23.28481661194223
 21
16.61397123822834
 31
0.0
  0
LINE
  5
589
330
1F
100
AcDbEntity
  8
0
100
AcDbLine
 10
23.70040593383734
 20
17.02956056012345
 30
0.0
 11
24.16165665832371
 21
17.49081128460982
 31
0.0
  0
LINE
  5
58A
330
1F
100
AcDbEntity
  8
0
100
AcDbLine
 10
17.3733352315629
 20
10.77744317665478
 30
0.0
 11
17.87534662999232
 21
11.2794545750842
 31
0.0
  0
LINE
  5
58B
330
1F
100
AcDbEntity
  8
0
100
AcDbLine
 10
22.42853709100971
 20
15.83264503610159
 30
0.0
 11
23.24002216593249
 21
16.64413011102437
 31
0.0
  0
LINE
  5
58C
330
1F
100
AcDbEntity
  8
0
100
AcDbLine
 10
23.64868266227876
 20
17.05279060737064
 30
0.0
 11
24.11134057202191
 21
17.51544851711379
 31
0.0
  0
LINE
  5
58D
330
1F
100
AcDbEntity
  8
0
100
AcDbLine
 10
17.34857555322413
 20
10.82763681712179
 30
0.0
 11
17.85396913850293
 21
11.33303040240059
 31
0.0
  0
LINE
  5
58E
330
1F
100
AcDbEntity
  8
0
100
AcDbLine
 10
22.37498955635105
 20
15.8540508202487
 30
0.0
 11
23.19392172958528
 21
16.67298299348294
 31
0.0
  0
LINE
  5
58F
330
1F
100
AcDbEntity
  8
0
100
AcDbLine
 10
23.59634985285682
 20
17.07541111675447
 30
0.0
 11
24.06055326674112
 21
17.53961453063877
 31
0.0
  0
LINE
  5
590
330
1F
100
AcDbEntity
  8
0
100
AcDbLine
 10
17.32431491963278
 20
10.87832950233621
 30
0.0
 11
17.8333147704851
 21
11.38732935318852
 31
0.0
  0
LINE
  5
591
330
1F
100
AcDbEntity
  8
0
100
AcDbLine
 10
22.3184621305217
 20
15.87247671322513
 30
0.0
 11
23.14677814288602
 21
16.70079272558945
 31
0.0
  0
LINE
  5
592
330
1F
100
AcDbEntity
  8
0
100
AcDbLine
 10
23.54338145046246
 20
17.09739603316589
 30
0.0
 11
24.00929491498043
 21
17.56330949768386
 31
0.0
  0
LINE
  5
593
330
1F
100
AcDbEntity
  8
0
100
AcDbLine
 10
17.30056939450537
 20
10.92953729601457
 30
0.0
 11
17.81341799821191
 21
11.44238589972111
 31
0.0
  0
LINE
  5
594
330
1F
100
AcDbEntity
  8
0
100
AcDbLine
 10
22.25840596523531
 20
15.88737386674451
 30
0.0
 11
23.09849789534931
 21
16.72746579685851
 31
0.0
  0
LINE
  5
595
330
1F
100
AcDbEntity
  8
0
100
AcDbLine
 10
23.48975454415909
 20
17.11872244566829
 30
0.0
 11
23.95751559592243
 21
17.58648349743163
 31
0.0
  0
LINE
  5
596
330
1F
100
AcDbEntity
  8
0
100
AcDbLine
 10
17.27734070370055
 20
10.98126192401552
 30
0.0
 11
17.79419476900735
 21
11.49811598932233
 31
0.0
  0
LINE
  5
597
330
1F
100
AcDbEntity
  8
0
100
AcDbLine
 10
20.98352210786198
 20
14.68744332817695
 30
0.0
 11
20.99714565995162
 21
14.7010668802666
 31
0.0
  0
LINE
  5
598
330
1F
100
AcDbEntity
  8
0
100
AcDbLine
 10
22.19553658164005
 20
15.89945780195502
 30
0.0
 11
23.04907016922217
 21
16.75299138953715
 31
0.0
  0
LINE
  5
599
330
1F
100
AcDbEntity
  8
0
100
AcDbLine
 10
23.43544973466432
 20
17.13937095497929
 30
0.0
 11
23.90521580493919
 21
17.60913702525416
 31
0.0
  0
LINE
  5
59A
330
1F
100
AcDbEntity
  8
0
100
AcDbLine
 10
17.25462559292377
 20
11.03350013204452
 30
0.0
 11
17.77562355320362
 21
11.55449809232437
 31
0.0
  0
LINE
  5
59B
330
1F
100
AcDbEntity
  8
0
100
AcDbLine
 10
20.9085687890579
 20
14.68744332817865
 30
0.0
 11
20.99126477208272
 21
14.77013931120347
 31
0.0
  0
LINE
  5
59C
330
1F
100
AcDbEntity
  8
0
100
AcDbLine
 10
22.13037826490837
 20
15.90925280402912
 30
0.0
 11
22.99847154330561
 21
16.77734608242636
 31
0.0
  0
LINE
  5
59D
330
1F
100
AcDbEntity
  8
0
100
AcDbLine
 10
23.38044732855878
 20
17.15932186767953
 30
0.0
 11
23.85236282518922
 21
17.63123736430997
 31
0.0
  0
LINE
  5
59E
330
1F
100
AcDbEntity
  8
0
100
AcDbLine
 10
17.23242146843842
 20
11.08624932636495
 30
0.0
 11
17.75769641824821
 21
11.61152427617473
 31
0.0
  0
LINE
  5
59F
330
1F
100
AcDbEntity
  8
0
100
AcDbLine
 10
20.83361547025383
 20
14.68744332818035
 30
0.0
 11
20.98616829277244
 21
14.83999615069896
 31
0.0
  0
LINE
  5
5A0
330
1F
100
AcDbEntity
  8
0
100
AcDbLine
 10
22.06302411331606
 20
15.91685197124258
 30
0.0
 11
22.9466804582163
 21
16.80050831614282
 31
0.0
  0
LINE
  5
5A1
330
1F
100
AcDbEntity
  8
0
100
AcDbLine
 10
23.32473202288168
 20
17.1785598808082
 30
0.0
 11
23.79892602724295
 21
17.65275388516947
 31
0.0
  0
LINE
  5
5A2
330
1F
100
AcDbEntity
  8
0
100
AcDbLine
 10
17.21073752270343
 20
11.13951869943572
 30
0.0
 11
17.74040853477366
 21
11.66918971150595
 31
0.0
  0
LINE
  5
5A3
330
1F
100
AcDbEntity
  8
0
100
AcDbLine
 10
20.75866215144976
 20
14.68744332818205
 30
0.0
 11
20.98257152119348
 21
14.91135269792577
 31
0.0
  0
LINE
  5
5A4
330
1F
100
AcDbEntity
  8
0
100
AcDbLine
 10
21.9929161046384
 20
15.9216972813707
 30
0.0
 11
22.8936363447711
 21
16.8224175215034
 31
0.0
  0
LINE
  5
5A5
330
1F
100
AcDbEntity
  8
0
100
AcDbLine
 10
23.26832331822159
 20
17.19710449495388
 30
0.0
 11
23.74489526317011
 21
17.67367643990241
 31
0.0
  0
LINE
  5
5A6
330
1F
100
AcDbEntity
  8
0
100
AcDbLine
 10
17.18960720957516
 20
11.19334170511324
 30
0.0
 11
17.72375785455846
 21
11.72749235009653
 31
0.0
  0
LINE
  5
5A7
330
1F
100
AcDbEntity
  8
0
100
AcDbLine
 10
20.68370883264569
 20
14.68744332818375
 30
0.0
 11
20.98128290359108
 21
14.98501739912914
 31
0.0
  0
LINE
  5
5A8
330
1F
100
AcDbEntity
  8
0
100
AcDbLine
 10
21.9199374827291
 20
15.92367197826717
 30
0.0
 11
22.83927525908065
 21
16.84300975461872
 31
0.0
  0
LINE
  5
5A9
330
1F
100
AcDbEntity
  8
0
100
AcDbLine
 10
23.21119958678847
 20
17.21493408232654
 30
0.0
 11
23.69026613211949
 21
17.69400062765756
 31
0.0
  0
LINE
  5
5AA
330
1F
100
AcDbEntity
  8
0
100
AcDbLine
 10
17.16907533505596
 20
11.2477631493998
 30
0.0
 11
17.70774793618562
 21
11.78643575052946
 31
0.0
  0
LINE
  5
5AB
330
1F
100
AcDbEntity
  8
0
100
AcDbLine
 10
20.60875551384161
 20
14.68744332818546
 30
0.0
 11
20.98336467115428
 21
15.06205248549813
 31
0.0
  0
LINE
  5
5AC
330
1F
100
AcDbEntity
  8
0
100
AcDbLine
 10
21.84417096334235
 20
15.9228587776862
 30
0.0
 11
22.78352419785638
 21
16.86221201220022
 31
0.0
  0
LINE
  5
5AD
330
1F
100
AcDbEntity
  8
0
100
AcDbLine
 10
23.15347046333297
 20
17.23215827767682
 30
0.0
 11
23.63503562390274
 21
17.71372343824658
 31
0.0
  0
LINE
  5
5AE
330
1F
100
AcDbEntity
  8
0
100
AcDbLine
 10
17.1491895321412
 20
11.30283066529082
 30
0.0
 11
17.69241915299632
 21
11.84606028614593
 31
0.0
  0
LINE
  5
5AF
330
1F
100
AcDbEntity
  8
0
100
AcDbLine
 10
20.53380219503754
 20
14.68744332818715
 30
0.0
 11
20.98954361024306
 21
15.14318474339268
 31
0.0
  0
LINE
  5
5B0
330
1F
100
AcDbEntity
  8
0
100
AcDbLine
 10
21.76555379337881
 20
15.91919492652843
 30
0.0
 11
22.7264253140188
 21
16.88006644716841
 31
0.0
  0
LINE
  5
5B1
330
1F
100
AcDbEntity
  8
0
100
AcDbLine
 10
23.09514458461486
 20
17.24878571776448
 30
0.0
 11
23.57920306001998
 21
17.73284419316959
 31
0.0
  0
LINE
  5
5B2
330
1F
100
AcDbEntity
  8
0
100
AcDbLine
 10
17.1299874002074
 20
11.35858185216279
 30
0.0
 11
17.67781445820125
 21
11.90640891015664
 31
0.0
  0
LINE
  5
5B3
330
1F
100
AcDbEntity
  8
0
100
AcDbLine
 10
20.45884887623347
 20
14.68744332818886
 30
0.0
 11
20.99983437266773
 21
15.22842882462312
 31
0.0
  0
LINE
  5
5B4
330
1F
100
AcDbEntity
  8
0
100
AcDbLine
 10
21.6833550660771
 20
15.91194951803249
 30
0.0
 11
22.66805527230391
 21
16.8966497242593
 31
0.0
  0
LINE
  5
5B5
330
1F
100
AcDbEntity
  8
0
100
AcDbLine
 10
23.03616514177878
 20
17.26475959373417
 30
0.0
 11
23.52278093693678
 21
17.75137538889217
 31
0.0
  0
LINE
  5
5B6
330
1F
100
AcDbEntity
  8
0
100
AcDbLine
 10
17.11143936586587
 20
11.41498713662704
 30
0.0
 11
17.66390163702896
 21
11.96744940779012
 31
0.0
  0
LINE
  5
5B7
330
1F
100
AcDbEntity
  8
0
100
AcDbLine
 10
20.38389555742939
 20
14.68744332819056
 30
0.0
 11
21.01727196242187
 21
15.32081973318304
 31
0.0
  0
LINE
  5
5B8
330
1F
100
AcDbEntity
  8
0
100
AcDbLine
 10
21.59412572958024
 20
15.8976735003414
 30
0.0
 11
22.60844446664847
 21
16.91199223740964
 31
0.0
  0
LINE
  5
5B9
330
1F
100
AcDbEntity
  8
0
100
AcDbLine
 10
22.97646110091917
 20
17.28000887168034
 30
0.0
 11
23.46579196721292
 21
17.76933973797408
 31
0.0
  0
LINE
  5
5BA
330
1F
100
AcDbEntity
  8
0
100
AcDbLine
 10
17.0934905157779
 20
11.47199160534484
 30
0.0
 11
17.65071823977148
 21
12.02921932933841
 31
0.0
  0
LINE
  5
5BB
330
1F
100
AcDbEntity
  8
0
100
AcDbLine
 10
20.30894223862532
 20
14.68744332819226
 30
0.0
 11
21.04819947119945
 21
15.42670056076638
 31
0.0
  0
LINE
  5
5BC
330
1F
100
AcDbEntity
  8
0
100
AcDbLine
 10
21.49340536638917
 20
15.87190645595611
 30
0.0
 11
22.5477179192037
 21
16.92621900877064
 31
0.0
  0
LINE
  5
5BD
330
1F
100
AcDbEntity
  8
0
100
AcDbLine
 10
22.91596843133373
 20
17.29446952090067
 30
0.0
 11
23.40826276870648
 21
17.78676385827341
 31
0.0
  0
LINE
  5
5BE
330
1F
100
AcDbEntity
  8
0
100
AcDbLine
 10
17.07609055094542
 20
11.52954495931814
 30
0.0
 11
17.63830199621892
 21
12.09175640459163
 31
0.0
  0
LINE
  5
5BF
330
1F
100
AcDbEntity
  8
0
100
AcDbLine
 10
20.23398891982125
 20
14.68744332819396
 30
0.0
 11
21.10659253299363
 21
15.56004694136634
 31
0.0
  0
LINE
  5
5C0
330
1F
100
AcDbEntity
  8
0
100
AcDbLine
 10
21.36753966491678
 20
15.8209940732895
 30
0.0
 11
22.48581751487144
 21
16.93927192324415
 31
0.0
  0
LINE
  5
5C1
330
1F
100
AcDbEntity
  8
0
100
AcDbLine
 10
22.85466753686332
 20
17.30812194523603
 30
0.0
 11
23.3502133895593
 21
17.80366779793201
 31
0.0
  0
LINE
  5
5C2
330
1F
100
AcDbEntity
  8
0
100
AcDbLine
 10
17.05920644977483
 20
11.58761417695332
 30
0.0
 11
17.62669474365955
 21
12.15510247083803
 31
0.0
  0
LINE
  5
5C3
330
1F
100
AcDbEntity
  8
0
100
AcDbLine
 10
20.15903560101717
 20
14.68744332819566
 30
0.0
 11
22.42264164028046
 21
16.95104936745895
 31
0.0
  0
LINE
  5
5C4
330
1F
100
AcDbEntity
  8
0
100
AcDbLine
 10
22.79255923388662
 20
17.32096696106511
 30
0.0
 11
23.29162996524232
 21
17.8200376924208
 31
0.0
  0
LINE
  5
5C5
330
1F
100
AcDbEntity
  8
0
100
AcDbLine
 10
17.04287849923849
 20
11.64623954522276
 30
0.0
 11
17.61597513190936
 21
12.21933617789361
 31
0.0
  0
LINE
  5
5C6
330
1F
100
AcDbEntity
  8
0
100
AcDbLine
 10
20.0840822822131
 20
14.68744332819736
 30
0.0
 11
22.35815936656308
 21
16.96152041254734
 31
0.0
  0
LINE
  5
5C7
330
1F
100
AcDbEntity
  8
0
100
AcDbLine
 10
22.72977322915451
 20
17.33313427513877
 30
0.0
 11
23.23245698403806
 21
17.83581803002232
 31
0.0
  0
LINE
  5
5C8
330
1F
100
AcDbEntity
  8
0
100
AcDbLine
 10
17.02717279929893
 20
11.70548716408896
 30
0.0
 11
17.60620534495062
 21
12.28451970974066
 31
0.0
  0
LINE
  5
5C9
330
1F
100
AcDbEntity
  8
0
100
AcDbLine
 10
20.00912896340903
 20
14.68744332819906
 30
0.0
 11
22.29213831781349
 21
16.97045268260352
 31
0.0
  0
LINE
  5
5CA
330
1F
100
AcDbEntity
  8
0
100
AcDbLine
 10
22.66631265425565
 20
17.34462701904568
 30
0.0
 11
23.17262769950913
 21
17.85094206429916
 31
0.0
  0
LINE
  5
5CB
330
1F
100
AcDbEntity
  8
0
100
AcDbLine
 10
17.01217685441827
 20
11.76544453801408
 30
0.0
 11
17.5973444594616
 21
12.3506121430574
 31
0.0
  0
LINE
  5
5CC
330
1F
100
AcDbEntity
  8
0
100
AcDbLine
 10
19.93417564460496
 20
14.68744332820076
 30
0.0
 11
22.22460314709814
 21
16.97787083069394
 31
0.0
  0
LINE
  5
5CD
330
1F
100
AcDbEntity
  8
0
100
AcDbLine
 10
22.60210553369302
 20
17.35537321728883
 30
0.0
 11
23.11207751849276
 21
17.86534520208857
 31
0.0
  0
LINE
  5
5CE
330
1F
100
AcDbEntity
  8
0
100
AcDbLine
 10
16.99793319356145
 20
11.82615419596304
 30
0.0
 11
17.58937496748371
 21
12.41759596988529
 31
0.0
  0
LINE
  5
5CF
330
1F
100
AcDbEntity
  8
0
100
AcDbLine
 10
19.85922232580088
 20
14.68744332820246
 30
0.0
 11
22.15539366696384
 21
16.98361466936542
 31
0.0
  0
LINE
  5
5D0
330
1F
100
AcDbEntity
  8
0
100
AcDbLine
 10
22.53704982220294
 20
17.36527082460452
 30
0.0
 11
23.05079367112829
 21
17.87901467352987
 31
0.0
  0
LINE
  5
5D1
330
1F
100
AcDbEntity
  8
0
100
AcDbLine
 10
16.98441725946041
 20
11.88759158066776
 30
0.0
 11
17.58222949627928
 21
12.48540381748664
 31
0.0
  0
LINE
  5
5D2
330
1F
100
AcDbEntity
  8
0
100
AcDbLine
 10
19.78426900699681
 20
14.68744332820416
 30
0.0
 11
22.08463251789614
 21
16.9878068391035
 31
0.0
  0
LINE
  5
5D3
330
1F
100
AcDbEntity
  8
0
100
AcDbLine
 10
22.47095400025389
 20
17.37412832146125
 30
0.0
 11
22.98880851795507
 21
17.89198283916243
 31
0.0
  0
LINE
  5
5D4
330
1F
100
AcDbEntity
  8
0
100
AcDbLine
 10
16.97157874512813
 20
11.94970638514126
 30
0.0
 11
17.5758844486981
 21
12.55401208871123
 31
0.0
  0
LINE
  5
5D5
330
1F
100
AcDbEntity
  8
0
100
AcDbLine
 10
19.71497830914315
 20
14.69310594915628
 30
0.0
 11
22.01253838046403
 21
16.99066602047716
 31
0.0
  0
LINE
  5
5D6
330
1F
100
AcDbEntity
  8
0
100
AcDbLine
 10
22.40393811445241
 20
17.38206575446553
 30
0.0
 11
22.92617111838362
 21
17.90429875839674
 31
0.0
  0
LINE
  5
5D7
330
1F
100
AcDbEntity
  8
0
100
AcDbLine
 10
16.95936680436163
 20
12.01244776318053
 30
0.0
 11
17.57025228649367
 21
12.62333324531257
 31
0.0
  0
LINE
  5
5D8
330
1F
100
AcDbEntity
  8
0
100
AcDbLine
 10
19.71404588345781
 20
14.76712684227671
 30
0.0
 11
21.93947203191668
 21
16.99255299073558
 31
0.0
  0
LINE
  5
5D9
330
1F
100
AcDbEntity
  8
0
100
AcDbLine
 10
22.33602928259375
 20
17.38911024141265
 30
0.0
 11
22.86292283594599
 21
17.91600379476489
 31
0.0
  0
LINE
  5
5DA
330
1F
100
AcDbEntity
  8
0
100
AcDbLine
 10
16.94775912681154
 20
12.07579340443622
 30
0.0
 11
17.56550750562355
 21
12.69354178324822
 31
0.0
  0
LINE
  5
5DB
330
1F
100
AcDbEntity
  8
0
100
AcDbLine
 10
19.71366253386666
 20
14.84169681149133
 30
0.0
 11
21.86526676475676
 21
16.99330104238143
 31
0.0
  0
LINE
  5
5DC
330
1F
100
AcDbEntity
  8
0
100
AcDbLine
 10
22.26722082714614
 20
17.39525510477081
 30
0.0
 11
22.79906598051971
 21
17.92710025814438
 31
0.0
  0
LINE
  5
5DD
330
1F
100
AcDbEntity
  8
0
100
AcDbLine
 10
16.93681225275609
 20
12.13979984918653
 30
0.0
 11
17.56187849239671
 21
12.76486608882716
 31
0.0
  0
LINE
  5
5DE
330
1F
100
AcDbEntity
  8
0
100
AcDbLine
 10
19.71430224948299
 20
14.91728984591344
 30
0.0
 11
21.78796717645756
 21
16.99095477288801
 31
0.0
  0
LINE
  5
5DF
330
1F
100
AcDbEntity
  8
0
100
AcDbLine
 10
22.19740483313937
 20
17.40039242956982
 30
0.0
 11
22.73455208157727
 21
17.93753967800771
 31
0.0
  0
LINE
  5
5E0
330
1F
100
AcDbEntity
  8
0
100
AcDbLine
 10
16.92660154690964
 20
12.20454246214586
 30
0.0
 11
17.55949263924985
 21
12.83743355448608
 31
0.0
  0
LINE
  5
5E1
330
1F
100
AcDbEntity
  8
0
100
AcDbLine
 10
19.71654426941968
 20
14.9944851846559
 30
0.0
 11
21.70972800687094
 21
16.98766892210716
 31
0.0
  0
LINE
  5
5E2
330
1F
100
AcDbEntity
  8
0
100
AcDbLine
 10
22.12647521298652
 20
17.40441612822274
 30
0.0
 11
22.66932301726106
 21
17.94726393249729
 31
0.0
  0
LINE
  5
5E3
330
1F
100
AcDbEntity
  8
0
100
AcDbLine
 10
16.91720535078737
 20
12.27009958482937
 30
0.0
 11
17.55809321739451
 21
12.9109874514365
 31
0.0
  0
LINE
  5
5E4
330
1F
100
AcDbEntity
  8
0
100
AcDbLine
 10
19.72100089959935
 20
15.07389513364134
 30
0.0
 11
21.62965428609986
 21
16.98254852014185
 31
0.0
  0
LINE
  5
5E5
330
1F
100
AcDbEntity
  8
0
100
AcDbLine
 10
22.05430453275135
 20
17.40719876679334
 30
0.0
 11
22.60332023381651
 21
17.9562144678585
 31
0.0
  0
LINE
  5
5E6
330
1F
100
AcDbEntity
  8
0
100
AcDbLine
 10
16.90866041935159
 20
12.33650797219935
 30
0.0
 11
17.55725561249232
 21
12.98510316534008
 31
0.0
  0
LINE
  5
5E7
330
1F
100
AcDbEntity
  8
0
100
AcDbLine
 10
19.7280266751091
 20
15.15587422795686
 30
0.0
 11
21.54679544548057
 21
16.97464299832834
 31
0.0
  0
LINE
  5
5E8
330
1F
100
AcDbEntity
  8
0
100
AcDbLine
 10
21.98103152288113
 20
17.40887907572889
 30
0.0
 11
22.53652217139268
 21
17.96436972424045
 31
0.0
  0
LINE
  5
5E9
330
1F
100
AcDbEntity
  8
0
100
AcDbLine
 10
16.90096487275692
 20
12.40376574441046
 30
0.0
 11
17.55771284993243
 21
13.06051372158598
 31
0.0
  0
LINE
  5
5EA
330
1F
100
AcDbEntity
  8
0
100
AcDbLine
 10
19.73831104646109
 20
15.24111191811463
 30
0.0
 11
21.4605705430215
 21
16.96337141467504
 31
0.0
  0
LINE
  5
5EB
330
1F
100
AcDbEntity
  8
0
100
AcDbLine
 10
21.90706205193309
 20
17.40986292358663
 30
0.0
 11
22.46892528726343
 21
17.97172615891697
 31
0.0
  0
LINE
  5
5EC
330
1F
100
AcDbEntity
  8
0
100
AcDbLine
 10
16.89410113198387
 20
12.47185532244318
 30
0.0
 11
17.55888119065789
 21
13.13663538111721
 31
0.0
  0
LINE
  5
5ED
330
1F
100
AcDbEntity
  8
0
100
AcDbLine
 10
19.75198999504704
 20
15.32974418550635
 30
0.0
 11
21.37016885277382
 21
16.94792304323313
 31
0.0
  0
LINE
  5
5EE
330
1F
100
AcDbEntity
  8
0
100
AcDbLine
 10
21.83156884050082
 20
17.40932303096014
 30
0.0
 11
22.40053168662931
 21
17.97828587708862
 31
0.0
  0
LINE
  5
5EF
330
1F
100
AcDbEntity
  8
0
100
AcDbLine
 10
16.88801805844536
 20
12.54072556771045
 30
0.0
 11
17.56101082995928
 21
13.21371833922437
 31
0.0
  0
LINE
  5
5F0
330
1F
100
AcDbEntity
  8
0
100
AcDbLine
 10
19.76963956917624
 20
15.42234707844133
 30
0.0
 11
21.27500785971869
 21
16.92771536898378
 31
0.0
  0
LINE
  5
5F1
330
1F
100
AcDbEntity
  8
0
100
AcDbLine
 10
21.75466829660438
 20
17.40737580586947
 30
0.0
 11
22.33130646582035
 21
17.98401397508544
 31
0.0
  0
LINE
  5
5F2
330
1F
100
AcDbEntity
  8
0
100
AcDbLine
 10
16.88283982887209
 20
12.61050065694295
 30
0.0
 11
17.56463348176094
 21
13.2922943098318
 31
0.0
  0
LINE
  5
5F3
330
1F
100
AcDbEntity
  8
0
100
AcDbLine
 10
19.79172916671558
 20
15.51938999478644
 30
0.0
 11
21.17429899186702
 21
16.90195981993789
 31
0.0
  0
LINE
  5
5F4
330
1F
100
AcDbEntity
  8
0
100
AcDbLine
 10
21.67727023175861
 20
17.40493105982947
 30
0.0
 11
22.26128247212409
 21
17.98894330019495
 31
0.0
  0
LINE
  5
5F5
330
1F
100
AcDbEntity
  8
0
100
AcDbLine
 10
16.87858079900822
 20
12.68119494588486
 30
0.0
 11
17.56984385391422
 21
13.37245800079086
 31
0.0
  0
LINE
  5
5F6
330
1F
100
AcDbEntity
  8
0
100
AcDbLine
 10
19.82005916335802
 20
15.62267331023466
 30
0.0
 11
21.06647638394166
 21
16.86909053081829
 31
0.0
  0
LINE
  5
5F7
330
1F
100
AcDbEntity
  8
0
100
AcDbLine
 10
21.59897274103845
 20
17.40158688791508
 30
0.0
 11
22.19033389692526
 21
17.9929480438019
 31
0.0
  0
LINE
  5
5F8
330
1F
100
AcDbEntity
  8
0
100
AcDbLine
 10
16.87525208231234
 20
12.75281954799475
 30
0.0
 11
17.57644701974856
 21
13.45401448543097
 31
0.0
  0
LINE
  5
5F9
330
1F
100
AcDbEntity
  8
0
100
AcDbLine
 10
19.85840236919588
 20
15.73596983487829
 30
0.0
 11
20.94790862337073
 21
16.82547608905313
 31
0.0
  0
LINE
  5
5FA
330
1F
100
AcDbEntity
  8
0
100
AcDbLine
 10
21.5194738136688
 20
17.39704127935121
 30
0.0
 11
22.11848389994096
 21
17.99605136562337
 31
0.0
  0
LINE
  5
5FB
330
1F
100
AcDbEntity
  8
0
100
AcDbLine
 10
16.87286887122564
 20
12.82538965571383
 30
0.0
 11
17.5843812500521
 21
13.53690203454028
 31
0.0
  0
LINE
  5
5FC
330
1F
100
AcDbEntity
  8
0
100
AcDbLine
 10
19.91234495954982
 20
15.86486574403801
 30
0.0
 11
20.81177023183257
 21
16.76429101632075
 31
0.0
  0
LINE
  5
5FD
330
1F
100
AcDbEntity
  8
0
100
AcDbLine
 10
21.43838028299433
 20
17.39090106748251
 30
0.0
 11
22.04579457241896
 21
17.99831535690714
 31
0.0
  0
LINE
  5
5FE
330
1F
100
AcDbEntity
  8
0
100
AcDbLine
 10
16.8712305094314
 20
12.89870461272535
 30
0.0
 11
17.59362481015181
 21
13.62109891344577
 31
0.0
  0
LINE
  5
5FF
330
1F
100
AcDbEntity
  8
0
100
AcDbLine
 10
19.99374340496418
 20
16.02121750825814
 30
0.0
 11
20.64495836097384
 21
16.6724324642678
 31
0.0
  0
LINE
  5
600
330
1F
100
AcDbEntity
  8
0
100
AcDbLine
 10
21.35491366575662
 20
17.38238776905058
 30
0.0
 11
21.97239872124404
 21
17.999872824538
 31
0.0
  0
LINE
  5
601
330
1F
100
AcDbEntity
  8
0
100
AcDbLine
 10
16.86999958975085
 20
12.97242701185059
 30
0.0
 11
17.60484620548382
 21
13.70727362758355
 31
0.0
  0
LINE
  5
602
330
1F
100
AcDbEntity
  8
0
100
AcDbLine
 10
20.19053953605854
 20
16.29296695815827
 30
0.0
 11
20.34801172734551
 21
16.45043914944525
 31
0.0
  0
LINE
  5
603
330
1F
100
AcDbEntity
  8
0
100
AcDbLine
 10
21.26924372174047
 20
17.3716711438402
 30
0.0
 11
21.89863800654239
 21
18.00106542864212
 31
0.0
  0
LINE
  5
604
330
1F
100
AcDbEntity
  8
0
100
AcDbLine
 10
16.87028312992842
 20
13.04766387083393
 30
0.0
 11
17.6181004741059
 21
13.79548121501141
 31
0.0
  0
LINE
  5
605
330
1F
100
AcDbEntity
  8
0
100
AcDbLine
 10
21.18115104385482
 20
17.35853178476033
 30
0.0
 11
21.82339160476575
 21
18.00077234567125
 31
0.0
  0
LINE
  5
606
330
1F
100
AcDbEntity
  8
0
100
AcDbLine
 10
16.87163955552765
 20
13.12397361523893
 30
0.0
 11
17.63386264267288
 21
13.88619670238416
 31
0.0
  0
LINE
  5
607
330
1F
100
AcDbEntity
  8
0
100
AcDbLine
 10
21.09063213759607
 20
17.34296619730736
 30
0.0
 11
21.74708185966898
 21
17.99941591938026
 31
0.0
  0
LINE
  5
608
330
1F
100
AcDbEntity
  8
0
100
AcDbLine
 10
16.87360089288337
 20
13.20088827140042
 30
0.0
 11
17.65243435123163
 21
13.97972172974868
 31
0.0
  0
LINE
  5
609
330
1F
100
AcDbEntity
  8
0
100
AcDbLine
 10
20.99757212422215
 20
17.3248595027392
 30
0.0
 11
21.6701672037507
 21
17.99745458226776
 31
0.0
  0
LINE
  5
60A
330
1F
100
AcDbEntity
  8
0
100
AcDbLine
 10
16.87653569836576
 20
13.27877639568859
 30
0.0
 11
17.67372606815979
 21
14.07596676548262
 31
0.0
  0
LINE
  5
60B
330
1F
100
AcDbEntity
  8
0
100
AcDbLine
 10
20.90196413680687
 20
17.3042048341297
 30
0.0
 11
21.59227908125819
 21
17.99451977858102
 31
0.0
  0
LINE
  5
60C
330
1F
100
AcDbEntity
  8
0
100
AcDbLine
 10
16.88073571844809
 20
13.35792973457669
 30
0.0
 11
17.69766947805564
 21
14.17486349418424
 31
0.0
  0
LINE
  5
60D
330
1F
100
AcDbEntity
  8
0
100
AcDbLine
 10
20.80350744793012
 20
17.28070146405872
 30
0.0
 11
21.51312574517176
 21
17.99031976130036
 31
0.0
  0
LINE
  5
60E
330
1F
100
AcDbEntity
  8
0
100
AcDbLine
 10
16.88627434201872
 20
13.4384216769531
 30
0.0
 11
17.72462123212675
 21
14.27676856706112
 31
0.0
  0
LINE
  5
60F
330
1F
100
AcDbEntity
  8
0
100
AcDbLine
 10
20.70180105058985
 20
17.25394838552423
 30
0.0
 11
21.43263380346247
 21
17.98478113839684
 31
0.0
  0
LINE
  5
610
330
1F
100
AcDbEntity
  8
0
100
AcDbLine
 10
16.89321039635633
 20
13.52031105009648
 30
0.0
 11
17.75536400870913
 21
14.38246466244928
 31
0.0
  0
LINE
  5
611
330
1F
100
AcDbEntity
  8
0
100
AcDbLine
 10
20.5958281804446
 20
17.22292883418475
 30
0.0
 11
21.35074442458723
 21
17.97784507832738
 31
0.0
  0
LINE
  5
612
330
1F
100
AcDbEntity
  8
0
100
AcDbLine
 10
16.90161451702695
 20
13.60366848957287
 30
0.0
 11
17.79063590230439
 21
14.49268987485032
 31
0.0
  0
LINE
  5
613
330
1F
100
AcDbEntity
  8
0
100
AcDbLine
 10
20.48500120523003
 20
17.18705517777596
 30
0.0
 11
21.26738697381442
 21
17.96944094636034
 31
0.0
  0
LINE
  5
614
330
1F
100
AcDbEntity
  8
0
100
AcDbLine
 10
16.91152371096023
 20
13.68853100231193
 30
0.0
 11
17.83120108255698
 21
14.60820837390867
 31
0.0
  0
LINE
  5
615
330
1F
100
AcDbEntity
  8
0
100
AcDbLine
 10
20.36858247828607
 20
17.14558976963777
 30
0.0
 11
21.18252445753193
 21
17.95953174888362
 31
0.0
  0
LINE
  5
616
330
1F
100
AcDbEntity
  8
0
100
AcDbLine
 10
16.92339457571854
 20
13.77535518587601
 30
0.0
 11
17.87907745773283
 21
14.7310380678903
 31
0.0
  0
LINE
  5
617
330
1F
100
AcDbEntity
  8
0
100
AcDbLine
 10
20.24453124434971
 20
17.09649185450719
 30
0.0
 11
21.09570030050148
 21
17.94766091065896
 31
0.0
  0
LINE
  5
618
330
1F
100
AcDbEntity
  8
0
100
AcDbLine
 10
16.93721577029217
 20
13.86412969925542
 30
0.0
 11
17.93637060285031
 21
14.86328453181356
 31
0.0
  0
LINE
  5
619
330
1F
100
AcDbEntity
  8
0
100
AcDbLine
 10
20.11106779379455
 20
17.0379817227578
 30
0.0
 11
21.00692583542548
 21
17.93383976438873
 31
0.0
  0
LINE
  5
61A
330
1F
100
AcDbEntity
  8
0
100
AcDbLine
 10
16.95303700036076
 20
13.95490424812978
 30
0.0
 11
18.00524182133449
 21
15.00710906910351
 31
0.0
  0
LINE
  5
61B
330
1F
100
AcDbEntity
  8
0
100
AcDbLine
 10
19.96541727088636
 20
16.96728451865538
 30
0.0
 11
20.91615127721975
 21
17.91801852498877
 31
0.0
  0
LINE
  5
61C
330
1F
100
AcDbEntity
  8
0
100
AcDbLine
 10
16.97076361924009
 20
14.04758418581488
 30
0.0
 11
18.0902669870599
 21
15.16708755363469
 31
0.0
  0
LINE
  5
61D
330
1F
100
AcDbEntity
  8
0
100
AcDbLine
 10
19.80306899577619
 20
16.87988956235099
 30
0.0
 11
20.82347118020984
 21
17.90029174678464
 31
0.0
  0
LINE
  5
61E
330
1F
100
AcDbEntity
  8
0
100
AcDbLine
 10
16.99067479212248
 20
14.14244867750305
 30
0.0
 11
18.19850393754509
 21
15.35027782292566
 31
0.0
  0
LINE
  5
61F
330
1F
100
AcDbEntity
  8
0
100
AcDbLine
 10
19.61572684832265
 20
16.76750073370322
 30
0.0
 11
20.72860653403588
 21
17.88038041941645
 31
0.0
  0
LINE
  5
620
330
1F
100
AcDbEntity
  8
0
100
AcDbLine
 10
17.0131211869415
 20
14.23984839112784
 30
0.0
 11
18.35602510227197
 21
15.58275230645832
 31
0.0
  0
LINE
  5
621
330
1F
100
AcDbEntity
  8
0
100
AcDbLine
 10
19.38185683947136
 20
16.6085840436577
 30
0.0
 11
20.63120710872753
 21
17.85793431291387
 31
0.0
  0
LINE
  5
622
330
1F
100
AcDbEntity
  8
0
100
AcDbLine
 10
17.0390286083466
 20
14.34070913133871
 30
0.0
 11
18.7372152879824
 21
16.03889581097452
 31
0.0
  0
LINE
  5
623
330
1F
100
AcDbEntity
  8
0
100
AcDbLine
 10
18.87793050322909
 20
16.17961102622121
 30
0.0
 11
20.53034730196987
 21
17.83202782496198
 31
0.0
  0
LINE
  5
624
330
1F
100
AcDbEntity
  8
0
100
AcDbLine
 10
17.06822006823742
 20
14.44485391003531
 30
0.0
 11
20.42620204859927
 21
17.80283589039716
 31
0.0
  0
LINE
  5
625
330
1F
100
AcDbEntity
  8
0
100
AcDbLine
 10
17.10066470302973
 20
14.55225186363339
 30
0.0
 11
20.31880042089903
 21
17.7703875815027
 31
0.0
  0
LINE
  5
626
330
1F
100
AcDbEntity
  8
0
100
AcDbLine
 10
17.13716954111903
 20
14.66371002052847
 30
0.0
 11
20.2073426557767
 21
17.73388313518614
 31
0.0
  0
LINE
  5
627
330
1F
100
AcDbEntity
  8
0
100
AcDbLine
 10
17.17928784962051
 20
14.78078164783572
 30
0.0
 11
20.09028750357714
 21
17.69178130179235
 31
0.0
  0
LINE
  5
628
330
1F
100
AcDbEntity
  8
0
100
AcDbLine
 10
17.22805780178078
 20
14.90450491880177
 30
0.0
 11
19.96655650481104
 21
17.64300362183203
 31
0.0
  0
LINE
  5
629
330
1F
100
AcDbEntity
  8
0
100
AcDbLine
 10
17.28408531467251
 20
15.03548575049927
 30
0.0
 11
19.83548861954578
 21
17.58688905537254
 31
0.0
  0
LINE
  5
62A
330
1F
100
AcDbEntity
  8
0
100
AcDbLine
 10
17.34963419692082
 20
15.17598795155336
 30
0.0
 11
19.69517804372254
 21
17.52153179835507
 31
0.0
  0
LINE
  5
62B
330
1F
100
AcDbEntity
  8
0
100
AcDbLine
 10
17.42710506970235
 20
15.32841214314066
 30
0.0
 11
19.54282226564994
 21
17.44412933908825
 31
0.0
  0
LINE
  5
62C
330
1F
100
AcDbEntity
  8
0
100
AcDbLine
 10
17.5198000604383
 20
15.49606045268239
 30
0.0
 11
19.37227046813515
 21
17.34853086037923
 31
0.0
  0
LINE
  5
62D
330
1F
100
AcDbEntity
  8
0
100
AcDbLine
 10
17.641316310005
 20
15.69253002105486
 30
0.0
 11
19.1761132683391
 21
17.22732697938896
 31
0.0
  0
LINE
  5
62E
330
1F
100
AcDbEntity
  8
0
100
AcDbLine
 10
17.8183811015015
 20
15.94454813135713
 30
0.0
 11
18.93123363654391
 21
17.05740066639954
 31
0.0
  0
LINE
  5
62F
330
1F
100
AcDbEntity
  8
0
100
AcDbLine
 10
18.19681829800143
 20
16.39793864666284
 30
0.0
 11
18.47574966619139
 21
16.6768700148528
 31
0.0
  0
ENDSEC
  0
SECTION
  2
OBJECTS
  0
DICTIONARY
  5
C
330
0
100
AcDbDictionary
281
     1
  3
ACAD_COLOR
350
6C
  3
ACAD_GROUP
350
D
  3
ACAD_IMAGE_DICT
350
421
  3
ACAD_IMAGE_VARS
350
422
  3
ACAD_LAYOUT
350
1A
  3
ACAD_MATERIAL
350
6B
  3
ACAD_MLINESTYLE
350
17
  3
ACAD_PLOTSETTINGS
350
19
  3
ACAD_PLOTSTYLENAME
350
E
  3
ACAD_TABLESTYLE
350
92
  3
AcDbVariableDictionary
350
59
  0
DICTIONARY
  5
6C
102
{ACAD_REACTORS
330
C
102
}
330
C
100
AcDbDictionary
281
     1
  0
DICTIONARY
  5
D
102
{ACAD_REACTORS
330
C
102
}
330
C
100
AcDbDictionary
281
     1
  0
DICTIONARY
  5
421
102
{ACAD_REACTORS
330
C
102
}
330
C
100
AcDbDictionary
281
     1
  3
柍戣
350
423
  0
RASTERVARIABLES
  5
422
102
{ACAD_REACTORS
330
C
102
}
330
C
100
AcDbRasterVariables
 90
        0
 70
     1
 71
     1
 72
     0
  0
DICTIONARY
  5
1A
102
{ACAD_REACTORS
330
C
102
}
330
C
100
AcDbDictionary
281
     1
  3
Layout1
350
74
  3
Layout2
350
9C
  3
Model
350
22
  0
DICTIONARY
  5
6B
102
{ACAD_REACTORS
330
C
102
}
330
C
100
AcDbDictionary
281
     1
  0
DICTIONARY
  5
17
102
{ACAD_REACTORS
330
C
102
}
330
C
100
AcDbDictionary
281
     1
  3
Standard
350
18
  0
DICTIONARY
  5
19
102
{ACAD_REACTORS
330
C
102
}
330
C
100
AcDbDictionary
281
     1
  0
ACDBDICTIONARYWDFLT
  5
E
102
{ACAD_REACTORS
330
C
102
}
330
C
100
AcDbDictionary
281
     1
  3
Normal
350
F
100
AcDbDictionaryWithDefault
340
F
  0
DICTIONARY
  5
92
102
{ACAD_REACTORS
330
C
102
}
330
C
100
AcDbDictionary
281
     1
  0
DICTIONARY
  5
59
102
{ACAD_REACTORS
330
C
102
}
330
C
100
AcDbDictionary
281
     1
  0
IMAGEDEF
  5
423
102
{ACAD_REACTORS
330
421
102
}
330
421
100
AcDbRasterImageDef
 90
        0
  1
C:\Documents and Settings\惵嶳惓岹\僨僗僋僩僢僾\柍戣.bmp
 10
284.0
 20
487.0
 11
0.00352112676056338
 21
0.00352112676056338
280
     1
281
     0
  0
LAYOUT
  5
74
102
{ACAD_REACTORS
330
1A
102
}
330
1A
100
AcDbPlotSettings
  1

  2
\\ADSCCNDC1\hq601xrx1
  4

  6

 40
0.0
 41
0.0
 42
0.0
 43
0.0
 44
0.0
 45
0.0
 46
0.0
 47
0.0
 48
0.0
 49
0.0
140
0.0
141
0.0
142
1.0
143
1.0
 70
   688
 72
     0
 73
     0
 74
     5
  7

 75
    16
 76
     0
 77
     2
 78
   300
147
1.0
148
0.0
149
0.0
100
AcDbLayout
  1
Layout1
 70
     1
 71
     1
 10
0.0
 20
0.0
 11
12.0
 21
9.0
 12
0.0
 22
0.0
 32
0.0
 14
0.0
 24
0.0
 34
0.0
 15
0.0
 25
0.0
 35
0.0
146
0.0
 13
0.0
 23
0.0
 33
0.0
 16
1.0
 26
0.0
 36
0.0
 17
0.0
 27
1.0
 37
0.0
 76
     0
330
73
  0
LAYOUT
  5
9C
102
{ACAD_REACTORS
330
1A
102
}
330
1A
100
AcDbPlotSettings
  1

  2
None
  4

  6

 40
0.0
 41
0.0
 42
0.0
 43
0.0
 44
0.0
 45
0.0
 46
0.0
 47
0.0
 48
0.0
 49
0.0
140
0.0
141
0.0
142
1.0
143
1.0
 70
   688
 72
     0
 73
     0
 74
     5
  7

 75
    16
 76
     0
 77
     2
 78
   300
147
1.0
148
0.0
149
0.0
100
AcDbLayout
  1
Layout2
 70
     1
 71
     2
 10
0.0
 20
0.0
 11
12.0
 21
9.0
 12
0.0
 22
0.0
 32
0.0
 14
1.000000000000000E+20
 24
1.000000000000000E+20
 34
1.000000000000000E+20
 15
-1.000000000000000E+20
 25
-1.000000000000000E+20
 35
-1.000000000000000E+20
146
0.0
 13
0.0
 23
0.0
 33
0.0
 16
1.0
 26
0.0
 36
0.0
 17
0.0
 27
1.0
 37
0.0
 76
     0
330
9B
  0
LAYOUT
  5
22
102
{ACAD_REACTORS
330
1A
102
}
330
1A
100
AcDbPlotSettings
  1

  2
none_device
  4
Letter_(8.50_x_11.00_Inches)
  6

 40
6.349999904632568
 41
6.349999904632568
 42
6.350006103515625
 43
6.350006103515625
 44
215.8999938964844
 45
279.3999938964844
 46
0.0
 47
0.0
 48
0.0
 49
0.0
140
0.0
141
0.0
142
1.0
143
3.560208697428377
 70
 11952
 72
     0
 73
     1
 74
     0
  7

 75
     0
 76
     0
 77
     2
 78
   300
147
0.28088241027059
148
0.1311165230791651
149
0.096403374003771
100
AcDbLayout
  1
Model
 70
     1
 71
     0
 10
0.0
 20
0.0
 11
12.0
 21
9.0
 12
0.0
 22
0.0
 32
0.0
 14
7.437633041354418
 24
8.001466767573142
 34
0.0
 15
26.96587284530801
 25
18.00147702267478
 35
0.0
146
0.0
 13
0.0
 23
0.0
 33
0.0
 16
1.0
 26
0.0
 36
0.0
 17
0.0
 27
1.0
 37
0.0
 76
     0
330
1F
  0
MLINESTYLE
  5
18
102
{ACAD_REACTORS
330
17
102
}
330
17
100
AcDbMlineStyle
  2
Standard
 70
     0
  3

 62
   256
 51
90.0
 52
90.0
 71
     2
 49
0.5
 62
   256
  6
BYLAYER
 49
-0.5
 62
   256
  6
BYLAYER
  0
ACDBPLACEHOLDER
  5
F
102
{ACAD_REACTORS
330
E
102
}
330
E
  0
ENDSEC
  0
EOF
